Agua Bendita

Intro

Agua Bendita

bass

by  PAULLET3

save to print version add songbook text version e-mail correct tuner
chordsukulelecavacokeyboardtabbassdrumsharmonicaflute Guitar Pro
close

there isn't a video lesson for this song

chords

Intro

	  		 eeeeeeee eeeeeeee eeeeeeee s seeeeeee eeeeeeee s seeeeeee eeeeeee  s seeeeeee 
|--------|--222222|--------|0h22222222|--------|--------|--------|-------| 
|--------|--------|--------|--------|--------|5/77777777|--------|5h77777777| 
|00000000|00------|00000000|--------|00000000|--------|00000000|--------| 
|--------|--------|--------|--------|--------|--------|--------|--------| 
                              (ep!)               (ep!)                (ep!) 

(ep!) hazlos como mas te guste; estas son las tres maneras ke se me han 
ocurrido y ke suenan mas o menos como en la cancion. 

A partir de aki kedate bien con la bateria: 

                  tresillo-----> /3\ (x3) 
||--------|--------|--------|--114441*||--------|--------|--------|------99| 
||----2*--|2*00----|----2*--|2*-------||----2*--|2*00----|----2*--|--6699--| 
||0*44--4*|----4*2*|0*44--4*|---------||0*44--4*|----4*2*|0*44--4*|7*------| 
||--------|--------|--------|---------||--------|--------|--------|--------| 

  q eeeeee q eeeeee q eeeeee        (x2) ( entran las voces )            (x3) 
||--------|--------|--------|----1122||--------|--------|--------|--11441*|| 
||----22--|2*00----|----22--|2*44----||----22--|2200----|----22--|22------|| 
||0*44--44|----4422|0*44--44|--------||0044--44|----4422|0044--44|--------|| 
||--------|--------|--------|--------||--------|--------|--------|--------|| 

                                                              
 eeeeeeee eeeeeeee eeeeeeee eeeeeeq  w 
|--------|--------|--------|------9*|--------| 
|----22--|2200----|----22--|--6699--|--------| 
|0044--44|----4422|0044--44|77------|0*******| 
|--------|--------|--------|--------|--------|
		  

See also:

bass Vicente Fernandez - Mi Querido Viejo bass Agua Bendita - Intro bass Jess Adrin Romero - Alzad Oh Puertas
e-chords

Other versions:

bass Agua Bendita - Intro bass Dragon Hearts - Intro Of Darkness
auto scroll beats size up size down change color hide chords drawings
tab show chords e-chords YouTube Clip e-chords hide all tabs e-chords go to top tab

share