Aerosmith

home > Aerosmith

Movin' Out Bass Tab

Aerosmith

Difficulty: nolevelnolevel

tuner correct add songbook print version text version save to e-mail
chordsukulelecavacokeyboardtabbassdrumsharmonicsflute Guitar Pro
chords

Movin' Out

Year: 1993 - Album: Aerosmith

  		"Movin Out" 
Aerosmith 
Tabbed by: Jeremy Casillas [email protected] 
 
Movin? Out is a kick ass grove by the one and only band that could even kick out a jam like this-Aerosmith. This is more of a laid back rock groove, but the bass line has to be tight to keep time with the drums. The bass part is pretty much the same thing through out the entire song, so its hella easy to play.   
 
VERSE RIFF 
G------------------------------------- 
D-----------567---------777777-5\----- 
A---00---0------0-0---0--------------- 
E------------------------------------- 
This is right after the first ?nobody knows where you can find me?(Just Joe and Steven) and then whole band enters- 
 
?Good morning glory, Hallelujah to ya. What is the story and whats been going through ya. Living like a king on the fat of the land. Workin like a dog in a rock n roll band. We?re movin?? 
 
G-------------------------------------------- 
D-------------------------------------------- 
A-0-0-2-3---0-0-2-3---0-2-3-3-5-------------- 
E--------------------------------------3-5--- 
This is the bridge. 
 
?Nobody goes there, nobody shows where?.? 
 
G------------------------------------------------------------------------------- 
D------------------------------------------------------------------------------- 
A------7777777---------7777777---------7777777-------7?7---7---7---------------- 
E---5-------------5-----------------5-----------------------------5\------------ 
This is right after the bridge, right before the guitar part. Crescendo your sound (playing a bit harder on the stings.) 
 
G--------------------------9----------------7------- 
D----------------7----07-----7-9-----05--7-----7---- 
A--------------------------------------------------- 
E--------------------------------------------------- 
My favorite part of the song here. The interlude. 
 
?Level with God and you?re in tune with the universe. Hear what you want, and you?ll hear what you wanna know. Gotta rise above because below is only getting worse. Time in turn will take you to where you want to go.? 
G------------------------------------------------------------------------------- 
D------------------------------------------------------------------------------- 
A-3333333333333333-4444444444444444-55555555-66666666-7777-8888-9999-10-11-12--- 
E------------------------------------------------------------------------------- 
Here is the chromatic scale up towards the end. 
 
?Where you wanna go?where you wanna go?where you goin??where you goin??.?
	  

Search Paypal
auto scroll beats size up size down change color hide chords drawings
tab show chords e-chords YouTube Clip e-chords hide all tabs e-chords go to top tab