Aerosmith

home > Aerosmith

Hole In My Soul Bass Tab

Aerosmith

Difficulty: nolevelnolevel

by meta11eir0

tuner correct add songbook print version text version save to e-mail
chordsukulelecavacokeyboardtabbassdrummharmonicsflute Guitar Pro
chords

Hole In My Soul

  		Aerosmith 
Hole In My Soul 
 
 
INTRO:                                    VERSO: 
                                          I'm down a one way street... 
G|--------------9---10---12---10-9-10-9--------------------------------------| 
D|---------10-----------------------------10---------------------------------| 
A|-3/8-----------------------------------------8-----------------------------| 
E|---------------------------------------------------------------------------| 
 
...with the one-track mind...no man's land... 
G|---------------------------------------------------------------------------| 
D|---------------------------------------------------------------------------| 
A|----3/8--------------------------------3/7---------7-----------------------| 
E|-------------------------------------------------7-------------------------| 
 
...fit the crime 
G|---------------------------------------------------------------------9-----| 
D|----------------9---5----------------10\-------------------------------9---| 
A|--------------7-------7--8--8--8--8------3--8-----3--7------2/7----------7-| 
E|---------------------------------------------------------------------------| 
 
 Is it over? Is it over...            ...flame 
G|---------------------------------------------| 
D|---------------------------------------------| 
A|-5----5-------5/3--------3/5---------7-5\----| 
E|-------------------------------------------3-| 
 
         ...mind...        ...feels to be...     
G|-----------------------------------------------------| 
D|-----------------------------------------------------| 
A|-----------5-----5-5-5-5-5\-----------0/3-------3-5--| 
E|-3-3-3-3-3-----------------5----5-5-5---------------3| 
 
G|-------------------------------------------------------5----|   
D|----------------------------------------------7\---------5--|   
A|----------5-----5---5---5-----------------------3----------3|   
E|3-3-3-3-3---------5---5------5----0/5---5-5-5---------------|   
 
REFRAO:  
  There's a hole in my soul and it's killin' me forever it's a place...  
G|---------------------------------------------------------------------| 
D|------------------------------------------------------6\-------------| 
A|--5---------6-------6--3----3--5-------------------------------------| 
E|-----------------------------------3---------3---4-----------1-------| 
 
  ...where a garden never grows 
G|------------------------------------8-8-8-8-8\| 
D|-----------------------------8--8-8-----------| 
A|----------4----------4----6-------------------| 
E|-----1----------------------------------------| 
 
G|---------------------------------------------------------------------------| 
D|---------------------------------------------------------------------------| 
A|6-----6-3-----3-5-------5/6\---------------4-----4/6---6/5---5\------------| 
E|------------------3---3/----4---4\1------1/--------------------3-3-3-3-3-3-| 
 
G|------------------| 
D|-----5----------5\| 
A|--3/5-------------| 
E|3-----------------| 
 
 
VERSO: 
G|-------------10\----9\---------------------------------------------9-------| 
D|-----------------2/-----2-------------------9---10-9----------------9------| 
A|8----8\-/8-------------------7-----------------------8---8---10\7----7-----| 
E|---------------------------0------0/12\1-----------------------------------| 
      
 
    it's over...       ...then it's over   ...driving me insane 
G|---------------------------------------------------------------------------| 
D|---------------------------------------------------------------------------| 
A|7-7-7\5---5-5------5---5---3--------3--3-----3----3/5---/7-3---------------| 
E|-----------------5---5---5-------------------------------------------------| 
 
 
          ...mind            tell me how it used to be           ...the knife... 
G|---------------7-------------------------/7-7-7--------------5---------5---| 
D|----------------7-------5-7---------------------------------------------5--| 
A|----------5------5----7------------------------------0/3-------3--3------3-| 
E|3-3-3-3-3-------------------5----------5/----------------------------------| 
 
 
  Inside of me 
G|------------| 
D|------------| 
A|--5---------| 
E|-------2---3| 
 
                                                   ...yeah 'coz... 
G|-------------------------------------------------------5--| 
D|-----------------------------------------/7-7-7\--------5-| 
A|-------------3-4-5------5-5-5-5-5\--------------\3-------3| 
E|-3--3--3--3-----------------------5----5/-----------------| 
 
 
REFRAO 
G|---------------------------------------------------------------------| 
D|------------------------------------------------------6\-------------| 
A|--5---------6-------6--3----3--5-------------------------------------| 
E|-----------------------------------3---------3---4-----------1-------| 
 
  ...where a garden never grows 
G|------------------------------------8-8-8-8\--| 
D|-----------------------------8----------------| 
A|----------4----------4----6-------------------| 
E|-----1----------------------------------------| 
 
G|---------------------------------------------------------------------------| 
D|--------------------------------------------------------------0/5----------| 
A|6-----6-3-----3-5-------5/6\---------------4-----4/6---6/5-----------------| 
E|------------------3---3/----4---4\1------1/--------------------------------| 
 
 
DURANTE O SOLO DE GUITARRA: 
G|---------------------9--10--12--10-9-10-9----------------------------------| 
D|-----------------10-------------------------10-----------------------------| 
A|-------3/8-------------------------------------8-7-----7\------------------| 
E|---------------------------------------------------------0-------0/12\1----| 
 
G|------5\-----------10-----------------------------------------9------------| 
D|---------------------10------------------------------------9---9-----------| 
A|-----------------------8------8/10\7-----7--7----2/7------------7----------| 
E|--------1------------------------------------------------------------------| 
 
 Yeeeeeeah, is it ooooooooover? Yes it's over 
G|----------------------------------------------5-----5--------------| 
D|-----------------------------------------------------5-------------| 
A|-----------2/5-----5----5----5---5---3----------------3--------5--7| 
E|-----------------5----5----5---5---5-------3-----------------------| 
 
 
                                 ...how it feels to be    ...inside of me 
G|---------------------------------------------------------------------------| 
D|------------------------------5-7--------/7-7-7---------------5------------| 
A|----------------5---5-5-5-5-7-------------------0--3--------5--------------| 
E|3-----3-3-3-3-3-------------------5---/5/-----------------------0--3-------| 
 
                                                 yeah coz there's a 
G|--------------------------------------------------5-------| 
D|---------------------------------/7-7-7-7\---------5------| 
A|-----------5----5-5-5-5-5\----------------\3--------3--5-5| 
E|-3-3-3-3-3----------------5----5/-------------------------| 
 
 
  hole in my soul... 
G|---------------------------------------------------------------------| 
D|------------------------------------------------------6\-------------| 
A|--5---------6-------6--3----3--5-------------------------------------| 
E|-----------------------------------3---------3---4-----------1-------| 
 
  ...where a garden never grows 
G|--------------------------------8-8| 
D|----------------------------8----8-| 
A|----------4----------4----6--------| 
E|-----1-----------------------------| 
 
G|--8-----------------------------------------------------------| 
D|-8-8----------------------------------------------------------| 
A|----6-----6-3-----3-5-------5/6\---------------4-----4/6---6/5| 
E|----------------------3---3/----4---4\1------1/---------------| 
 
  Yeeeeeeeaaaaaaaaahhhhhhhooohyeeyeeyeyeaah... 
G|----------------------------------------------9-10-12-12-9h10 9h10 9h10....| 
D|------------------------------------------10-------------------------------| 
A|-5/10-10-10-10-10-10-10-10\8--------3/8------------------------------------| 
E|---------------------------------------------------------------------------| 
 
 
    Na na na na na.....na na na.....na nana...... 
G|....9h10 9h10...---------------------------------------9-10-12-10-9-10-9---| 
D|----------------------------------------------------10---------------------| 
A|----------------3\------------------3--------------------------------------| 
E|------------------1------------1------3----3/---1--------------------------| 
 
 Na na na na naaa.... 
G|---------------------------------------------------------------------------| 
D|---------------------------------------------------------------------------| 
A|-2/3-----------------------------------------------------------------------| 
E|----1----1-1-----1---1\------/13----13-13----13----13---8-----------1...---| 
 
| /  slide up 
| \  slide down 
| h  hammer-on 
| p  pull-off 
| ~  vibrato 
| +  harmonica 
| x  nota abafada 
 

	  

Search Paypal
auto scroll beats size up size down change color hide chords drawings
tab show chords e-chords YouTube Clip e-chords hide all tabs e-chords go to top tab