Aerosmith

home > Aerosmith

Back In The Saddle Bass Tab

Aerosmith

Difficulty: nolevelnolevel

tuner correct add songbook print version text version save to e-mail
chordsukulelecavacokeyboardtabbassdrumsharmonicsflute Guitar Pro
chords

Back In The Saddle

Year: 1976 - Album: Rocks

  		intro

G|-------------------------------------------|-------------------|
D|-1-0---4-3---7-6--3-3---1-0---4-3---7-6----|-6-5-6-5-6-5-6-5---|
A|-------------------------------------------|-------------------|
E|-------------------------------------------|-------------------|

chorus

G|----------------------------------------5----5-5-4-----------|
D|------------3---------------3-----------------------5--------|
A|---3--5--5-----5---------------3--4--5-----------------------|
E|-------------------3--4--5-----------------------------------|

verso

G|----------------------7---5---7--7--5--5-------------------------7--5-5-5-5-5---|
D|---3---5----3--4--5------------------------8----3---5---3--4--5---------------8-|
A|--------------------------------------------------------------------------------|
E|--------------------------------------------------------------------------------|

Final

G|-----------5--4---2---0----------------------|
D|--------------------------2------------------|
A|------------------------------2----0---------|
E|-----3----------------------------------3----|
	  

Search Paypal
auto scroll beats size up size down change color hide chords drawings
tab show chords e-chords YouTube Clip e-chords hide all tabs e-chords go to top tab