Aerosmith

home > Aerosmith

Baby Please Don't Go Bass Tab

Aerosmith

Difficulty: nolevelnolevel

by marcnagel

tuner correct add songbook print version text version save to e-mail
chordsukulelecavacokeyboardtabbassdrumsharmonicsflute Guitar Pro
chords

Baby Please Don't Go

Year: 2004 - Album: Honkin' On Bobo

  		  Intro 
  Q=102(16=s16) 
  4/4 
  Gtr I 
   Wx4            S S S S S S S S S S S S S S S S 
G|------------||-----------------------------------|| 
D|------------||o-2-2-4-2-2-2-4-2-2-2-4-2-2-2-4-2-o|| 
A|------------||o---------------------------------o|| 
E|------------||-----------------------------------|| 


   Interlude                             Bridge 
                                            
     S S S S S S S S S S S S S S S S  4x     S S S S S S S S S S S S S S S S   5x 
G||-----------------------------------||-||------------------------------------|| 
D||o-2-2-4-2-2-2-4-2-2-2-4-2-2-2-4-2-o||-||o-2-2-4-2-2-2-4-2-2-2-4-2-2-2-4-2--o|| 
A||o---------------------------------o||-||o----------------------------------o|| 
E||-----------------------------------||-||------------------------------------|| 


   1st Verse 
                                        2/4 
     S S S S S S S S S S S S S S S S  4x E E E E 
G||-----------------------------------||-4-2-0---|| 
D||o-2-2-4-2-2-2-4-2-2-2-4-2-2-2-4-2-o||-------2-|| 
A||o---------------------------------o||---------|| 
E||-----------------------------------||---------|| 


  Bridge                                2nd Verse                                          
   4/4 
     S S S S S S S S S S S S S S S S         S S S S S S S S S S S S S S S S  3x 
G||-----------------------------------||-||-----------------------------------|| 
D||o-2-2-4-2-2-2-4-2-2-2-4-2-2-2-4-2-o||-||o-2-2-4-2-2-2-4-2-2-2-4-2-2-2-4-2-o|| 
A||o---------------------------------o||-||o---------------------------------o|| 
E||-----------------------------------||-||-----------------------------------|| 


                             Bridge 
   S S S S S S S S E E E E     S S S S S S S S S S S S S S S S 
G|-----------------0-2-3-4-||------------------------------------|| 
D|-2-2-4-2-2-2-4-2---------||o-2-2-4-2-2-2-4-2-2-2-4-2-2-2-4-2--o|| 
A|-------------------------||o----------------------------------o|| 
E|-------------------------||------------------------------------|| 


   3rd Verse 
     S S S S S S S S S S S S S S S S  3x S S S S S S S S S S E E E 
G||-----------------------------------||-------------4-4-2-2-0-2-4-|| 
D||o-2-2-4-2-2-2-4-2-2-2-4-2-2-2-4-2-o||-2-2-4-2-2-2---------------|| 
A||o---------------------------------o||---------------------------|| 
E||-----------------------------------||---------------------------|| 


   Bridge                               Harmonica Solo 
   4/4 
     S S S S S S S S S S S S S S S S         S S S S S S S S S S S S S S S S  4x 
G||-----------------------------------||-||-----------------------------------|| 
D||o-2-2-4-2-2-2-4-2-2-2-4-2-2-2-4-2-o||-||o-2-2-4-2-2-2-4-2-2-2-4-2-2-2-4-2-o|| 
A||o---------------------------------o||-||o---------------------------------o|| 
E||-----------------------------------||-||-----------------------------------|| 


  Interlude                              Breakdown 
     S S S S S S S S S S S S S S S S  4x     S S S S S S S S S S S S S S S S   3x 
G||-----------------------------------||-||------------------------------------|| 
D||o-2-2-4-2-2-2-4-2-2-2-4-2-2-2-4-2-o||-||o-2-2-4-2-2-2-4-2-2-2-4-2-2-2-4-2--o|| 
A||o---------------------------------o||-||o----------------------------------o|| 
E||-----------------------------------||-||------------------------------------|| 


   S S S S S S S S S S S S S S S S     S S S S S S S S S S S S S S S S  4x 
G|---------------------------------||-----------------------------------|| 
D|-2-2-4-2-2-2-4-2-2---4---2---4---||o-2-2-4-2-2-2-4-2-2-2-4-2-2-2-4-2-o|| 
A|---------------------------------||o---------------------------------o|| 
E|---------------------------------||-----------------------------------|| 


     S S S S S S S S S S S S S S S S  4x S S S S S S S S S S S S S S S S 
G||-----------------------------------||---------------------------------|| 
D||o-2-2-4-2-2-2-4-2-2-2-4-2-2-2-4-2-o||-2-2-4-2-2-2-4-2-2-2-4-2-2-2-4-2-|| 
A||o---------------------------------o||---------------------------------|| 
E||-----------------------------------||---------------------------------|| 


  Bridge   
   E H..         E H..         E H..         E H.      E 
G|-------------|-------------|-------------|---------------|| 
D|-------------|-------------|-------------|---------------|| 
A|-------------|-------------|-------------|-----------2s==|| 
E|-0-0---------|-0-0---------|-0-0---------|-0-0-----------|| 


 Guitar Solo 
   E E E E E. E S E   S  S  E  E  E  E  S  E  S  E 
G|------------------|------------------------------| 
D|------------------|------------------------------| 
A|-7-7-7-7-7--7-7-7-|-7s10-10-10-10-10-10-10-10-10-| 
E|------------------|------------------------------| 


    S  S  E  E  E  E  S  E  S  E 
G|-------------------------------| 
D|-------------------------------| 
A|-10s12-12-12-12-12-12-12-12-12-| 
E|-------------------------------| 


    S  S  E  E  S  S  E  S  E  S  S  S    E  S  E  S  S  S  E  S  E  S  S  S 
G|-------------------------------------|-------------------------------------| 
D|-------------------------------------|-12-12-12-12-12-12-12-12-12-12-12-12-| 
A|-12s14-14-14-14-14-14-14-14-14-14-14-|-------------------------------------| 
E|-------------------------------------|-------------------------------------| 


    E  S  E  S  S  S  E  S  S  S  S  S  S 
G|------------------------------------------| 
D|-12-12-12-12-12-12-12-12-12-12-12-12-12---| 
A|------------------------------------------| 
E|------------------------------------------| 


      S  S  S  S  S  S  S  S  S  S  S  S  S  S  E  4x 
G||------------------------------------------------|| 
D||o-12-14-14-12-14-14-12-14-14-12-14-14-12-14-14-o|| 
A||o----------------------------------------------o|| 
E||------------------------------------------------|| 


    S  S  S  S  S  S  S  S  S  S S S  S  S  S  S 
G|-----------------------------------------------| 
D|-14-14-12-12-----------------------------------| 
A|-------------14-14-12-12-11-11-9-9-------------| 
E|-----------------------------------12-12-10-10-| 


                                   Bridge 
   S S S S S S S S S S S S S S E     S S S S S S S S S S S S S S S S   4x 
G|-------------------------------||------------------------------------|| 
D|-------------------------------||o----------------------------------o|| 
A|-------------------------------||o----------------------------------o|| 
E|-9-9-7-7-5-5-4-4-2-2-4-4-2-2-0-||--0-0-2-0-0-0-2-0-0-0-2-0-0-0-2-0---|| 


   4th Verse                             Interlude    
     S S S S S S S S S S S S S S S S  4x     S S S S S S S S S S S S S S S S   4x 
G||-----------------------------------||-||------------------------------------|| 
D||o---------------------------------o||-||o----------------------------------o|| 
A||o---------------------------------o||-||o----------------------------------o|| 
E||--0-0-2-0-0-0-2-0-0-0-2-0-0-0-2-0--||-||--0-0-2-0-0-0-2-0-0-0-2-0-0-0-2-0---|| 


   Outro 
     S S S S S S S S S S S S S S S S  3x S S S S S S S S S S E Q    +Q   H. 
G||-----------------------------------||--------------------------|------------*| 
D||o---------------------------------o||--------------------------|------------*| 
A||o---------------------------------o||--------------------------|------------*| 
E||--0-0-2-0-0-0-2-0-0-0-2-0-0-0-2-0--||-0-0-2-0-0-0-2-0-0-0-2-0--|-(0)--------*| 

************************************ 
Duration Legend 

W - whole; H - half; Q - quarter; E - 8th; S - 16th; a - acciaccatura;  
+ - note tied to previous; . - note dotted; 
Duration letters will always appear directly above the note/fret number it represents the 
duration for.  Duration letters with no fret number below them represent rests. 
Uncapitalized letters represent notes that are staccato (1/2 duration).  

|  (n)  -  note tied to previous 
************************************* 
	  

Full key step upFull key step up
Half key step upHalf key step up
Half key step downHalf key step down
Full key step downFull key step down
Search Paypal
auto scroll beats size up size down change color hide chords drawings
tab show chords e-chords YouTube Clip e-chords hide all tabs e-chords go to top tab