Adorable

Glorious

Adorable

bass

by  ADALGOMES

save to print version add songbook text version e-mail correct tuner
chordsukulelecavacokeyboardtabbassdrumsharmonicaflute Guitar Pro
close

there isn't a video lesson for this song

chords

Glorious

	  		Intro 
G|-------------------------------------------------| 
D|-------------------------------------------------| 
A|--7--7--7--7--7--6--6--6-------------------------| 
E|--------------------------5--5--5--7----7--7--7--| 
x3 

G|----------------------------------------------------| 
D|----------------------------------------------------| 
A|-------------------------------------------------7--| 
E|-5--5--5--5--5--5--5--5--7--7--7--7--7--7--7--7-----| 

Verse/Chorus 
G|-----------------------------------| 
D|--7-7-7-7-7-------4-4-4-4-4--------| 
A|------------7-7-7-----------5-5-5--| 
E|-----------------------------------| 
x20 

Bridge 
G|-----------------------------------| 
D|-----------------------------------| 
A|--7---7-7-7-7-7-7--7--7--7--5-5-5--| 
E|-----------------------------------| 

G|--------------------------------| 
D|--------------------------------| 
A|--7-7-7-7-7-7-7--7--7--7--5--5--| 
E|--------------------------------| 

Verse/Chorus 
G|-----------------------------------| 
D|--7-7-7-7-7-------4-4-4-4-4--------| 
A|------------7-7-7-----------5-5-5--| 
E|-----------------------------------| 
x16 

Bridge 
G|-----------------------------------| 
D|-----------------------------------| 
A|--7---7-7-7-7-7-7--7--7--7--5-5-5--| 
E|-----------------------------------| 

G|--------------------------------| 
D|--------------------------------| 
A|--7-7-7-7-7-7-7--7--7--7--5--5--| 
E|--------------------------------| 

Verse/Chorus/Outro 
G|-----------------------------------| 
D|--7-7-7-7-7-------4-4-4-4-4--------| 
A|------------7-7-7-----------5-5-5--| 
E|-----------------------------------| 
x11 

G|-----------------------------------| 
D|--7-7-7-7-7-------4-4-4-4-4-------7| 
A|------------7-7-7-----------5-5-5--| 
E|-----------------------------------| 
		  

See also:

bass Deep Purple - Burn (ver. 2) bass Deep Purple - Smoke On The Water (ver. 3) bass Deep Purple - Strange kind of woman bass Deep Purple - Into The Fire bass Deep Purple - Burn Ver.(2) bass Deep Purple - Smoke On The Water
e-chords

Other versions:

bass Adorable - Glorious bass Adorable - Glorious bass Adorable - Glorious
auto scroll beats size up size down change color hide chords drawings
tab show chords e-chords YouTube Clip e-chords hide all tabs e-chords go to top tab

share