Abyssinians

home > Abyssinians

The Good Lord Bass Tab

Abyssinians

Difficulty: AdvancedAdvanced

by MarceloBongoMan

tuner correct add songbook print version text version save to e-mail
chordsukulelecavacokeyboardtabbassdrumsharmonicsflute Guitar Pro
chords

The Good Lord

  		The good lord Abyssinians 
Partition transcrite par Tonton 
 
 
intro:  
G|---------------------------|---------------------------|  
D|---------------------------|---------------------------|  
A|-5--------5--3-------------|----3----7-----------------|  
E|------------------5--------|-5----------------0-3-5----|  
 
verse/Chorus:     
G|---------------------------|---------------------------|  
D|---------------------------|---------------------------|  
A|-5-5-5-5-5-5-5-5-5-5-0---5-|---------------------------|  
E|---------------------------|-5-5-5-5-5-5-5--5--5-0--5--|  
 
G|---------------------------|---------------------------|  
D|---------------------------|---------------------------|  
A|-7-7-7-7-7-7-7-7-7-7-------|---------------------------|  
E|---------------------7---7-|-5-5-5-5-5-5-5--5--5-0--5--|  
 
 
 
	  

Search Paypal
auto scroll beats size up size down change color hide chords drawings
tab show chords e-chords YouTube Clip e-chords hide all tabs e-chords go to top tab