Aaron Neville

Crying In The Chapel

Aaron Neville

bass

by  EDSOOLIVEIRA

save to print version add songbook text version e-mail correct tuner
chordsukulelecavacokeyboardtabbassdrumsharmonicaflute Guitar Pro
close

there isn't a video lesson for this song

chords

Crying In The Chapel

Year: 1995 - Album: The Tattooed Heart

	  		 
0:08 

G|------------------------------------------------------------------------------------------------| 
D|------------------------------------------------5-----------------------5-----------------------| 
A|5-----------------------5-----------------------------------------------------------------------| 
E|------------------------------------------------------------------------------------------------| 

G|------------------------------------------------------------------------------------------------| 
D|--------------------------------------------5---------------------------------------------------| 
A|3-----------------------3-----------------------3-----------------------3-------------------4---| 
E|------------------------------------------------------------------------------------------------| 

0:24 

G|------------------------------------------------------------------------------------------------| 
D|------------------------------------------------5-----------------------5-------------------5---| 
A|5-----------------------5-----------------------------------------------------------------------| 
E|------------------------------------------------------------------------------------------------| 

G|------------------------------------------------------------| 
D|------------------------3-----------------------------------| 
A|3-----------------------------------------------3-----------| 
E|------------------------------------------------------------| 

G|5-------4-------2-------------------------------| 
D|------------------------5-------3-------2-------| 
A|------------------------------------------------| 
E|------------------------------------------------| 

0:40 

G|------------------------------------------------------------------------------------------------| 
D|------------------------------------------------5-----------------------5-------------------5---| 
A|5-----------------------5-----------------------------------------------------------------------| 
E|------------------------------------------------------------------------------------------------| 

G|------------------------------------------------------------------------------------------------| 
D|--------------------------------------------5---------------------------------------------------| 
A|3-----------------------3-----------------------3-----------------------3-------------------4---| 
E|------------------------------------------------------------------------------------------------| 

0:56 

G|------------------------------------------------------------------------------------------------| 
D|------------------------------------------------5-----------------------5-----------------------| 
A|5-------------------5---5-----------------------------------------------------------------------| 
E|------------------------------------------------------------------------------------------------| 

G|------------------------------------------------------------------------------------------------| 
D|------------------------3-------------------------------------------------------------------5---| 
A|3-----------------------------------------------3-----------------------3-----------------------| 
E|------------------------------------------------------------------------------------------------| 

1:12 

G|------------------------------------------------------------------------------------------------| 
D|3-----------------------3-----------------------------------------------------------------------| 
A|------------------------------------------------3-----------------------3-------------------4---| 
E|------------------------------------------------------------------------------------------------| 

G|------------------------------------------------------------------------------------| 
D|------------------------------------------------5-----------------------5-----------| 
A|5-----------------------5-----------------------------------------------------------| 
E|------------------------------------------------------------------------------------| 

G|5-------4-------2-------------------------------| 
D|------------------------5-------3-------2-------| 
A|------------------------------------------------| 
E|------------------------------------------------| 

1:30 

G|------------------------------------------------------------------------------------------------| 
D|------------------------------------------------5-----------------------5-------------------5---| 
A|5-----------------------5-----------------------------------------------------------------------| 
E|------------------------------------------------------------------------------------------------| 

G|------------------------------------------------------------------------------------------------| 
D|--------------------------------------------5---------------------------------------------------| 
A|3-----------------------3-----------------------3-----------------------3-------------------4---| 
E|------------------------------------------------------------------------------------------------| 

1:46 

G|------------------------------------------------------------------------------------------------| 
D|------------------------------------------------5-----------------------5-------------------5---| 
A|5-----------------------5-----------------------------------------------------------------------| 
E|------------------------------------------------------------------------------------------------| 

G|------------------------------------------------------------------------------------------------| 
D|------------------------3-------------------------------------------------------------------5---| 
A|3-----------------------------------------------3-----------------------3-----------------------| 
E|------------------------------------------------------------------------------------------------| 

2:02 

G|------------------------------------------------------------------------------------------------| 
D|3-----------3-----------4-----------4-------------------------------5---------------------------| 
A|------------------------------------------------3-----------------------3-----------------------| 
E|------------------------------------------------------------------------------------------------| 

G|------------------------------------------------------------------------------------| 
D|------------------------------------------------------------------------5-----------| 
A|5-----------------------5-----------------------5-----------------------------------| 
E|------------------------------------------------------------------------------------| 

G|5-------4-------2-------------------------------| 
D|------------------------5-------3-------2-------| 
A|------------------------------------------------| 
E|------------------------------------------------| 

2:19 

G|------------------------------------------------------------------------------------------------| 
D|------------------------------------------------5-----------------------5-----------------------| 
A|5-----------------------5-----------------------------------------------------------------------| 
E|------------------------------------------------------------------------------------------------| 

G|------------------------------------------------------------------------------------------------| 
D|--------------------------------------------5---------------------------------------------------| 
A|3-----------------------3-----------------------3-----------------------3-------------------4---| 
E|------------------------------------------------------------------------------------------------| 

2:36 

G|------------------------------------------------------------------------------------------------| 
D|------------------------------------------------5-----------------------------------------------| 
A|5-----------------------5-----------------------------------------------------------------------| 
E|------------------------------------------------------------------------------------------------| 



2:50 

G|------------------------------------------------| 
D|----------------------3-------------------------| 
A|3-------------------------------------------3---| 
E|------------------------------------------------| 
		  

See also:

bass Frank Sinatra - Unforgettable bass Frank Sinatra - The Lady Is A Tramp bass The Temptations - My Girl bass Otis Redding - Just One More Day bass Frank Sinatra - Fly Me Too The Moon bass Otis Redding - I'm Sick Yall
e-chords

Other versions:

bass Aaron Neville - Crying In The Chapel
auto scroll beats size up size down change color hide chords drawings
tab show chords e-chords YouTube Clip e-chords hide all tabs e-chords go to top tab

share