A Thorn For Every Heart

home > A Thorn For Every ...

99 With An Anchor Bass Tab

A Thorn For Every Heart

Difficulty: nolevelnolevel

by brunblazkowski

tuner correct add songbook print version text version save to e-mail
chordsukulelecavacokeyboardtabbassdrumsharmonicsflute Guitar Pro
chords

99 With An Anchor

  		



Riff 1 (0:05) 
G|----------| 
D|----------| 
A|22222222--| X1 
D|----------| 

Riff 1 (0:07) 
G|----------| 
D|----------| 
A|22222222--| X1 
D|----------| 

Riff 2 (0:10) 
G|----------| 
D|----------| 
A|----------| X1 
D|22222222--| 

Riff 2 (0:12) 
G|----------| 
D|----------| 
A|----------| X1 
D|22222222--| 

Riff 1 (0:14) 
G|----------| 
D|----------| 
A|22222222--| X1 
D|----------| 

Riff 1 (0:17) 
G|----------| 
D|----------| 
A|22222222--| X1 
D|----------| 

(For the next few riffs, it follows a distinct rhythm--LEARN IT) 

Riff 3 (0:19) 
G|------------------------------------------------------| 
D|22-2-2-22-2-2-22-2-2-22-2-2---------------------------| 
A|---------------------------22-2-2-22-2-2-22-2-2-22-2-2| X1 
D|------------------------------------------------------| 

Riff 3 (0:30) 
G|--------------------------------------------------------| 
D|--------------------------------------------------------| 
A|--------------------------------------------------------| X1 
D|22-2-2-22-2-2-22-2-2-22-2-2--55-5-5-55-5-5-00-0-0-00-0-0| 

Chorus (0:39) 
G|--------------------------------| 
D|----------------2222222222222222| 
A|3333333355555555----------------| X4 
D|--------------------------------| 

Chorus (0:58) 
G|-------------------------------| 
D|---------------222-222-222-222-| 
A|333-333-555-555----------------| X3 
D|-------------------------------| 

Chorus (1:12) 
G|------------------------------------------------| 
D|---------------222-222--------------------------| 
A|333-333-555-555--------555-555-333-333-333-333--| X1 
D|------------------------------------------------| 

Chorus (1:19) 
G|--------------------------------| 
D|222-222-------------------------| 
A|--------555-555-222-222-222-222-| X2 
D|--------------------------------| 


Chorus (1:29) 
G|------------------------------------------------| 
D|222-222-----------------------------------------| 
A|--------555-555-222-222-222-222-222-222-222-222-| X1 
D|------------------------------------------------| 

Interlude (1:36) 
G|----------------------------------------| 
D|----------------------------------------| 
A|----------------------------------------| X2 
G|22222-0-2---22-2-0-2---00-0-0-0---22--02| 

Riff 2 (1:55) 
G|----------| 
D|----------| 
A|----------| X1 
D|22222222--| 

Riff 2 (1:57) 
G|----------| 
D|----------| 
A|----------| X1 
D|22222222--| 


Riff 1 (2:00) 
G|----------| 
D|----------| 
A|22222222--| X1 
D|----------| 


Riff 1 (2:02) 
G|----------| 
D|----------| 
A|22222222--| X1 
D|----------| 

Chorus (2:05) 
G|--------------------------------| 
D|----------------2222222222222222| 
A|3333333355555555----------------| X3 
D|--------------------------------| 

Chorus (2:19) 
G|-------------------------------------------| 
D|-------------------------------------------| 
A|3333333355555555------------------------3*-| X1 
D|----------------222222222222222222222222---| 

Post-Chorus (2:26) 
D|-------------------| 
A|2222222400000000---| 
D|----------------3*-| x1 
G|-------------------| 

Post-Chorus (2:31) 
D|-----------------| 
A|2222222400000000-| 
D|-----------------| x1 
G|-----------------| 

Post-Chorus 2 (2:34) 
G|----------------------------------------------------------------| 
D|--------------------------------2222222222222222----------------| 
A|33333333333333335555555555555555----------------5555555555555555| X5 
D|----------------------------------------------------------------| 

Conclusion (3:22) 
G|-------| 
D|2------| 
A|--5--3-| X1 
D|-------| 

The End 
	  

Search Paypal
auto scroll beats size up size down change color hide chords drawings
tab show chords e-chords YouTube Clip e-chords hide all tabs e-chords go to top tab