A Change Of Pace

Home Where The Heart Is

A Change Of Pace

bass

by  FERNSANTANA

save to print version add songbook text version e-mail correct tuner
chordsukulelecavacokeyboardtabbassdrumsharmonicaflute Guitar Pro
close

there isn't a video lesson for this song

chords

Home Where The Heart Is

	  		

Intro 
G|---------------------------------------------------------------------| 
D|---------------------------------------------------------------------| 
A|-3333333333333-3-3-3333333333333-3-3-00000000000-0-0-00000000000-0-0-| 
D|---------------------------------------------------------------------|  

Verse 
G|---------------------------------------| 
D|---------------------------------------| 
A|-3-33-3-3-33-3-33-3-0-00-0-0-0-00-0-00-| 
D|---------------------------------------| 

G|--------------4h5p4---|   |------------4h5p4----| 
D|------------5-------5-|   |----------5-------5--| 
A|-3333333333-----------|   |-00000000------------| 
D|----------------------|x2 |---------------------|x2 

Pre-Chorus 
G|-----------------| 
D|-----------------| 
A|-----------------| 
D|-33-55-77777777--| x4 

Chorus 
G|-----------------------------------------------------------------| 
D|-----------------------------------------------------------------| 
A|-333333-2222222--------------------------------------------------| 
D|---------------333333333333-3/77-7-77-7-55-5-55-5-33333333333333-|  

G|----------------------------------------------------------------| 
D|----------------------------------------------------------------| 
A|---------------------33333333333333-----------------------------| 
D|-3/7777777-3333333333---------------77777-5555555-3333333333333-|  

 

Bridge 
G|-------------------| 
D|-------------------| 
A|-3~-2~-------------| 
D|--------23~--23~---| x4 

G|---------------------------------------------------------| 
D|---------------------------------------------------------| 
A|-33333333333333-333333333333-000000000000-00000000000000-| 
D|---------------------------------------------------------|  

Chorus x1 
		  

auto scroll beats size up size down change color hide chords drawings
tab show chords e-chords YouTube Clip e-chords hide all tabs e-chords go to top tab

share