A Change Of Pace

Goodbye For Now

A Change Of Pace

bass

by  FERNSANTANA

save to print version add songbook text version e-mail correct tuner
chordsukulelecavacokeyboardtabbassdrumsharmonicaflute Guitar Pro
close

there isn't a video lesson for this song

chords

Goodbye For Now

	  		

Intro 
G|--------------------------------------------------------------| 
D|--------------------------------------------------------------| 
A|-3-333-333333-0-0000000000000---------------------------------| 
E|------------------------------5-55555555555555-33333333-2h3p2-| 


Verse 
G|--------------------------------------------------| 
D|--------------------------------------------------| 
A|-3-333-333333-0-0000000000000------------------3~-| 
E|------------------------------5-55555555555555----| 

G|----------------------------------------------------------------| 
D|----------------------------------------------------------------| 
A|-3-333-333333-0-0000000000000-----------------------------------| 
E|------------------------------5-55555555555555-33333333-23-5-3-2| 

Chorus 
G|-----------------------------------------------------------------| 
D|-----------------------------------------------------------------| 
A|-3-333-333333-0-0000000000000------------------------------------| 
E|------------------------------5555555555555555-3333333333333333--| 
		  

auto scroll beats size up size down change color hide chords drawings
tab show chords e-chords YouTube Clip e-chords hide all tabs e-chords go to top tab

share