-->
tutorials

Legato

Tutorials > Acoustic & Eletric Guitar - Advanced

submited by fret_shredder

Ascending

E--------------------------------------------------------------------------------------------5h7h8-
B--------------------------------------------------------------------5h6h8---------5h6h8--------
G------------------------------------------------4h5h7-----4h5h7--------4h5h7----------------
D----------------------------3h5h7-----3h5h7------3h5h7--------------------------------------
A--------3h5h7-----3h5h7------3h5h7----------------------------------------------------------
E-3h5h7------3h5h7------------------------------------------------------------------------------

Descending

E-8p7p5-------8p7p5------------------------------------------------------------------------------
B--------8p6p5-------8p6p5-------8p6p5--------------------------------------------------------
G------------------------------7p5p4-------7p5p4-------7p5p4---------------------------------
D----------------------------------------------------7p5p3-------7p5p3-------7p5p3-----------
A--------------------------------------------------------------------------7p5p3-------7p5p3
E------------------------------------------------------------------------------------------------7p5p3h5

suggested videos
Paypal
Search