ZZ Top

home > ZZ Top > chords

Just Got Paid Tab

ZZ Top

Difficulty: ExpertExpert

by jeffreyyauger

tuner correct add songbook print version text version rtf version e-mail
chordsukulelecavacokeyboardtabbassdrumsharmonicsflute Guitar Pro
chords

Just Got Paid

	  ZZ Top - Just Got Paid 

E|--------------------------------------------------------------------------------| 
B|--------------------------------------------------------------------------------| 
G|----------------------------- x3 then end with 4-|-|-|-|-|-|-|-|-|-|-|-|-|-|-|--| 
D|-------5---------------2-|------------------------------------------------------| 
A|-5h7-----7---5---7--------------------------------------------------------------| 
E|-----0-----0---0---3p0----------------------------------------------------------| 

E|--------------------------------------------------------------------------------| 
B|--------------------------------------------------------------------------------| 
G|----------------------------- x6 -----------------------------------------------| 
D|-------5---------------2-|------------------------------------------------------| 
A|-5h7-----7---5---7--------------------------------------------------------------| 
E|-----0-----0---0---3p0----------------------------------------------------------| 

   E | | | D | | | 
E|-7-------5----------------------------------------------------------------------| 
B|-9-------7----------------------------------------------------------------------| 
G|-9-------7----------------------------------------------------------------------| 
D|-9-------7-------------5---------------2-|-------5---------------2-|------------| 
A|-7-------5-------5h7-----7---5---7---------5h7-----7---5---7--------------------| 
E|---------------------0-----0---0---3p0---------0-----0---0---3p0----------------| 
   I just got paid today...got me a pocket full of change 

   E | | | D | | | 
E|-7-------5----------------------------------------------------------------------| 
B|-9-------7----------------------------------------------------------------------| 
G|-9-------7----------------------------------------------------------------------| 
D|-9-------7-------------5---------------2-|-------5---------------2-|------------| 
A|-7-------5-------5h7-----7---5---7---------5h7-----7---5---7--------------------| 
E|---------------------0-----0---0---3p0---------0-----0---0---3p0----------------| 
   Said, I just got paid today...got me a pocket full of change 

   G | | | A | | | 
E|-3-------5----------------------------------------------------------------------| 
B|-3-------5----------------------------------------------------------------------| 
G|-4-------6----------------------------------------------------------------------| 
D|-5-------7-------------5---------------2-|-------5---------------2-|------------| 
A|-5-------7-------5h7-----7---5---7---------5h7-----7---5---7--------------------| 
E|-3-------5-----------0-----0---0---3p0---------0-----0---0---3p0----------------| 
   If you believe like workin' hard all day...just step in my shoes and take my pay 

   E | | | D | | | 
E|-7-------5----------------------------------------------------------------------| 
B|-9-------7----------------------------------------------------------------------| 
G|-9-------7----------------------------------------------------------------------| 
D|-9-------7-------------5---------------2-|-------5---------------2-|------------| 
A|-7-------5-------5h7-----7---5---7---------5h7-----7---5---7--------------------| 
E|---------------------0-----0---0---3p0---------0-----0---0---3p0----------------| 
   I was born my papa's son...when I hit the ground I was on the run 

   E | | | D | | | 
E|-7-------5----------------------------------------------------------------------| 
B|-9-------7----------------------------------------------------------------------| 
G|-9-------7----------------------------------------------------------------------| 
D|-9-------7-------------5---------------2-|-------5---------------2-|------------| 
A|-7-------5-------5h7-----7---5---7---------5h7-----7---5---7--------------------| 
E|---------------------0-----0---0---3p0---------0-----0---0---3p0----------------| 
   I had one glad hand and the other behind...you can have yours, just give me mine 

   G | | | A | | | 
E|-3-------5----------------------------------------------------------------------| 
B|-3-------5----------------------------------------------------------------------| 
G|-4-------6----------------------------------------------------------------------| 
D|-5-------7-------------5---------------2-|-------5---------------2-|------------| 
A|-5-------7-------5h7-----7---5---7---------5h7-----7---5---7--------------------| 
E|-3-------5-----------0-----0---0---3p0---------0-----0---0---3p0----------------| 
   When the houd dog barkin' in the black of the night...stick my hand in my pocket,  
all right 

   SOLO 
   A | | | E | | | 
E|-5-------7----------------------------------------------------------------------| 
B|-5-------9----------------------------------------------------------------------| 
G|-6-------9--------- x26 --------------------------------------------------------| 
D|-7-------9----------------------------------------------------------------------| 
A|-7-------7----------------------------------------------------------------------| 
E|-5------------------------------------------------------------------------------| 

   RHYTHM LICKS USED DURING SOLO 
   A       E 
E|---------12----12---------------------------------------------------------------| 
B|---------12-9--9----------------------------------------------------------------| 
G|---------9--9--9----------------------------------------------------------------| 
D|-----7---9--9--9----------------------------------------------------------------| 
A|-7h9----------------------------------------------------------------------------| 
E|--------------------------------------------------------------------------------| 

   A       E 
E|--------------12----------------------------------------------------------------| 
B|--------------12----------------------------------------------------------------| 
G|--------------9-----------------------------------------------------------------| 
D|-----7---9h11-9-----------------------------------------------------------------| 
A|-7h9----------------------------------------------------------------------------| 
E|--------------------------------------------------------------------------------| 

   A       E 
E|--------------------------------------------------------------------------------| 
B|--------------------------------------------------------------------------------| 
G|---------9-----9----------------------------------------------------------------| 
D|-----7-----h11------------------------------------------------------------------| 
A|-7h9----------------------------------------------------------------------------| 
E|--------------------------------------------------------------------------------| 

   A       E 
E|--------------------------------------------------------------------------------| 
B|--------------------------------------------------------------------------------| 
G|--------------9-----------------------------------------------------------------| 
D|-----7---9h11-------------------------------------------------------------------| 
A|-7h9----------------------------------------------------------------------------| 
E|--------------------------------------------------------------------------------| 

   END OF SOLO 
E|---------------------------------------------------------------------------------------------| 
B|-----10---------------------------------------------10-------------------10-10-10----12b13---| 
G|-/11----11p9-----9------------9----9------------/11----11p9----9------11----------11---------| 
D|-------------/11---11-7-|-/11---11---11-7-|-|-|-------------11---11-7------------------------| 
A|---------------------------------------------------------------------------------------------| 
E|---------------------------------------------------------------------------------------------| 

   E 
E|--------------------------------------------------------------------------------| 
B|-9-9-9-9-9----------------------------------------------------------------------| 
G|-9-9-9-9-9------ x6 ------------------------------------------------------------| 
D|-9-9-9-9-9h11-------------------------------------------------------------------| 
A|--------------------------------------------------------------------------------| 
E|--------------------------------------------------------------------------------| 

E|------------------------------------14-19-14-----20-21b/------------------------| 
B|-----------------------12-12-----------------18b--------------------------------| 
G|--------------------11-------13-------------------------------------------------| 
D|-12-12-12b-|-9-|-13-------------12b---------------------------------------------| 
A|--------------------------------------------------------------------------------| 
E|--------------------------------------------------------------------------------| 


E|--------------------------------------------------------------------------------| 
B|--------------------------------------------------------------------------------| 
G|------------------------------ x6 ----------------------------------------------| 
D|-------5---------------2-|------------------------------------------------------| 
A|-5h7-----7---5---7--------------------------------------------------------------| 
E|-----0-----0---0---3p0----------------------------------------------------------| 

   E | | | D | | | 
E|-7-------5----------------------------------------------------------------------| 
B|-9-------7----------------------------------------------------------------------| 
G|-9-------7----------------------------------------------------------------------| 
D|-9-------7-------------5---------------2-|-------5---------------2-|------------| 
A|-7-------5-------5h7-----7---5---7---------5h7-----7---5---7--------------------| 
E|---------------------0-----0---0---3p0---------0-----0---0---3p0----------------| 
   I just got paid today...got me a pocket full of change 

   E | | | D | | | 
E|-7-------5----------------------------------------------------------------------| 
B|-9-------7----------------------------------------------------------------------| 
G|-9-------7----------------------------------------------------------------------| 
D|-9-------7-------------5---------------2-|-------5---------------2-|------------| 
A|-7-------5-------5h7-----7---5---7---------5h7-----7---5---7--------------------| 
E|---------------------0-----0---0---3p0---------0-----0---0---3p0----------------| 
   Said, black sheep, black, do you got some wool?...yes, I do, man, my bag is full 

   G | | | A | | | 
E|-3-------5----------------------------------------------------------------------| 
B|-3-------5----------------------------------------------------------------------| 
G|-4-------6----------------------------------------------------------------------| 
D|-5-------7-------------5---------------2-|-------5---------------2-|------------| 
A|-5-------7-------5h7-----7---5---7---------5h7-----7---5---7--------------------| 
E|-3-------5-----------0-----0---0---3p0---------0-----0---0---3p0----------------| 
   It's the root of evil and you know the rest...but it's way ahead of what's second best 

   D | | | | | | | | | E B 
E|-5-------------------7-7--------------------------------------------------------| 
B|-7-------------------9-7--------------------------------------------------------| 
G|-7-------------------9-8--- x3 -------------------------------------------------| 
D|-7-------------------9-9--------------------------------------------------------| 
A|-5-------------------7-9--------------------------------------------------------| 
E|-----------------------7--------------------------------------------------------| 

   D | | | | | | | | | E 
E|-5-------------------7----------------------------------------------------------| 
B|-7-------------------9----------------------------------------------------------| 
G|-7-------------------9----- x2 -------------------------------------------------| 
D|-7-------------------9----------------------------------------------------------| 
A|-5-------------------7----------------------------------------------------------| 
E|--------------------------------------------------------------------------------| 


   D | | | | | | | | | F# 
E|-5-------------------7----------------------------------------------------------| 
B|-7-------------------9----------------------------------------------------------| 
G|-7-------------------9----------------------------------------------------------| 
D|-7-------------------9----------------------------------------------------------| 
A|-5-------------------7----------------------------------------------------------| 
E|--------------------------------------------------------------------------------| 
	  

Request the video "Just Got Paid"  -  Send "Just Got Paid" Ringtone to your Cell

there isn't a video lesson for this song

request
Full key step upFull key step up
Half key step upHalf key step up
Half key step downHalf key step down
Full key step downFull key step down
Search
auto scroll beats size up size down change color hide chords drawings
tab show chords e-chords YouTube Clip e-chords hide all tabs e-chords go to top tab