Yngwie Malmsteen

home > Yngwie Mal... > chords

Liar Tab

Yngwie Malmsteen

Difficulty: nolevelnolevel

tuner correct add songbook print version text version rtf version e-mail
chordsukulelecavacokeyboardtabbassdrumsharmonicsflute Guitar Pro
chords

Liar

	   
fig 1 
|--------------------|--------------------|--------------------------------| 
|--------------------|--------------------|--------------------------------| 
|--9~--7--5~--7--9~--|--10~--9~--7--9--7--|------9~---7---5~---7-------9---| 
|--------------------|--------------------|--------------------------------| 
|--------------------|--------------------|--------------------------------| 
|--------------------|--------------------|--------------------------------| 
|                    |                    |                                | 
|                    |                    |                                | 
|--------------------|--------------------|--------------------------------| 
|--------------------|--------------------|--------------------------------| 
|--5~--4--2~--4--5~--|---7---5---4--5--4--|-------5~---4---2~---4-------5--| 
|--------------------|--------------------|--------------------------------| 
|--------------------|--------------------|--------------------------------| 
|--------------------|--------------------|--------------------------------| 
 
 
|-----------------|------------------------------|-------------------------| 
|-----------------|------------------------------|-------------------------| 
|-10~---11---13~--|----9~-----7~----5----7---9~--|-10~--9~--7---9----7~----| 
|-----------------|------------------------------|-------------------------| 
|-----------------|------------------------------|-------------------------| 
|-----------------|------------------------------|-------------------------| 
|                 |                              |                         | 
|                 |                              |                         | 
|-----------------|------------------------------|-------------------------| 
|-----------------|------------------------------|-------------------------| 
|--7~----8----9~--|----5~-----4~----2----4---5~--|--7---5---4---5----7~----| 
|-----------------|------------------------------|-------------------------| 
|-----------------|------------------------------|-------------------------| 
|-----------------|------------------------------|-------------------------| 
 
 
|------------------------|------------------|------------------------------| 
|------------------------|------------------|------------------------------| 
|--9~--7~---5---7----9---|-10~---11----13---|------17~---------(17~)-------| 
|------------------------|------------------|------------------------------| 
|------------------------|------------------|------------------------------| 
|------------------------|------------------|------------------------------| 
|                        |                  |                              | 
|                        |                  |                              | 
|------------------------|------------------|------------------------------| 
|------------------------|------------------|------------------------------| 
|--5~--4~---2---4----5---|---7~---8-----9---|------14~---------(14~)-------| 
|------------------------|------------------|------------------------------| 
|------------------------|------------------|------------------------------| 
|------------------------|------------------|------------------------------| 
 
 
Verse 
 You came to me... 
|-------------------------------|----------------------------------| 
|-------------------------------|----------------------------------| 
|-------------------------------|----------------------------------| 
|-9-----------------------------|----------------------------------| 
|-7-2-2-2-2-2-2-2-2-2-2-2-2-2-2-|-2-2-2-2-2-2-2-2-2-2-2-2-2-2-2-2--| 
|-x-0-0-0-0-0-0-0-0-0-0-0-0-0-0-|-0-0-0-0-0-0-0-0-0-0-0-0-0-0-0-0--| 
 
 
|---------------------------------|13-10-12-13-12-10------------------------ 
|---------------------------------|------------------12-9-10-12-10-9-------- 
|---------------------------------|----------------------------------10-7-9- 
|---------------------------------|----------------------------------------- 
|-2-2-2-2-2-2-2-2-2-2-2-2-2-2-2-2-|----------------------------------------- 
|-0-0-0-0-0-0-0-0-0-0-0-0-0-0-0-0-|----------------------------------------- 
 
 
--------------------|-----------------------------|------------------------- 
--------------------|-----------------------------|------------------------- 
10-9-7--------------|-----------------------------|------------------------- 
-------9-6-7-9-7-6--|-----------------------------|------------------------- 
--------------------|-7~--7-7-7-7-7-7-7-7-7-7-7-7-|2-2-2-2-2-2-2-2-2-2-2-2-2 
--------------------|-----0-0-0-0-0-0-0-0-0-0-0-0-|0-0-0-0-0-0-0-0-0-0-0-0-0 
 
 
---------|13-10-12-13-12-10------------------------------------------------| 
---------|------------------12-9-10-12-10-9--------------------------------| 
---------|----------------------------------10-7-9-------------------------| 
---------|-----------------------------------------10-9-7------------------| 
2-2-2-2--|------------------------------------------------9-6-7-9-7-6------| 
0-0-0-0--|-----------------------------------------------------------------| 
 
 
Chorus 
    You can't fight... 
|--------------------------------|-----------------------------------------| 
|--------------------------------|-----------------------------------------| 
|--------------------------------|-----------------------------------------| 
|7--7-7-7-7-7-7-7-7-7-7-7-7-7-7--|-7-7-7-7-7-7-7-7-7-7-7-7-7-7-7-7-7-------| 
|5--5-5-5-5-5-5-5-5-5-5-5-5-5-5--|-5-5-5-5-5-5-5-5-5-5-5-5-5-5-5-5-5-------| 
|--------------------------------|-----------------------------------------| 
 
 
|---------------------------------|----------------------------------------| 
|---------------------------------|----------------------------------------| 
|-------------------------------5-|------5---5-----------------------------| 
|-7-7-7-7-7-7-7-7-7-7-7-7-7-7-7-3-|------3---3--3--2--0--5-------------5---| 
|-5-5-5-5-5-5-5-5-5-5-5-5-5-5-5---|----------------------3-------5--5--5---| 
|---------------------------------|----------------------------------------| 
 
 
|--------------------------------|-----------------------------------------| 
|--------------------------------|-----------------------------------------| 
|--------------------------------|-----------------------------------------| 
|7--7-7-7-7-7-7-7-7-7-7-7-7-7-7--|-7-7-7-7-7-7-7-7-7-7-7-7-7-7-7-7-7-------| 
|5--5-5-5-5-5-5-5-5-5-5-5-5-5-5--|-5-5-5-5-5-5-5-5-5-5-5-5-5-5-5-5-5-------| 
|--------------------------------|-----------------------------------------| 
 
 
|---------------------------------|----------------------------------------| 
|---------------------------------|----------------------------------------| 
|-------------------------------5-|------5---5--x--------------------------| 
|-7-7-7-7-7-7-7-7-7-7-7-7-7-7-7-3-|------3---3--3--2--0--5-----------------| 
|-5-5-5-5-5-5-5-5-5-5-5-5-5-5-5---|----------------------3-----3--5--7--3--| 
|---------------------------------|----------------------------------------| 
 
Repeat fig 1 (Intro) 
 
 
Interlude 
 
|7p4-------4-10p7--------7-12p8---------8s17p12----------12s|7p4-------4---- 
|----6---6--------9----9--------10---10---------13----13----|----6---6------ 
|------7------------10-------------9---------------14-------|------7-------- 
|-----------------------------------------------------------|--------------- 
|-----------------------------------------------------------|--------------- 
|-----------------------------------------------------------|--------------- 
 
 
10p7--------7-12p8---------8s17p12----------12|12p9----------9-13p10-------- 
-----9----9--------10---10---------13----13---|-----10----10---------10----- 
-------10-------------9---------------14------|--------12---------------10-- 
----------------------------------------------|----------------------------- 
----------------------------------------------|----------------------------- 
----------------------------------------------|----------------------------- 
 
 
---10s7-10p7-------7-12p8-------8|10p6-------6-8p5-------5s4h7p4-----4s5---| 
10-----------8---8--------8---8--|-----6---6-------5---5---------5---------| 
---------------7------------9----|-------7-----------5-------------7-------| 
---------------------------------|-----------------------------------------| 
---------------------------------|-----------------------------------------| 
---------------------------------|-----------------------------------------| 
 
 
|7p4-------4-10p7--------7-12p8---------8s17p12-----------12|s7p4-------4--- 
|----6---6--------9----9--------10---10---------13----13----|-----6---6----- 
|------7------------10-------------9---------------14-------|-------7------- 
|-----------------------------------------------------------|--------------- 
|-----------------------------------------------------------|--------------- 
|-----------------------------------------------------------|--------------- 
 
 
10p7--------7-12p8---------8s17p12----------12|12p9----------9-13p10-------- 
-----9----9--------10---10---------13----13---|-----10----10---------10----- 
-------10-------------9---------------14------|--------12---------------10-- 
----------------------------------------------|----------------------------- 
----------------------------------------------|----------------------------- 
----------------------------------------------|----------------------------- 
 
 
---10s7-10p7-------7-12p8-------8|10p6-------6-8p5-------5s4h7p4-----4s5---| 
10-----------8---8--------8---8--|-----6---6-------5---5---------5-------10| 
---------------7------------9----|-------7-----------5-------------7-------| 
---------------------------------|-----------------------------------------| 
---------------------------------|-----------------------------------------| 
---------------------------------|-----------------------------------------| 
 
 
|-------16p14p12----------17p16p14---------|19p16----------19s21~----------- 
|-17~------------16-14-12----------17-16-14|------19-17-16--------------17-- 
|------------------------------------------|----------------------18-18----- 
|------------------------------------------|-------------------------------- 
|------------------------------------------|-------------------------------- 
|------------------------------------------|-------------------------------- 
 
 
16-21p16----------19p17p16-|---------16h17p16p14---------------------------- 
---------17----16----------|19p17p16-------------17p16p14----------16h17p16- 
------------18-------------|------------------------------17p16p14---------- 
---------------------------|------------------------------------------------ 
---------------------------|------------------------------------------------ 
---------------------------|------------------------------------------------ 
 
 
-------------------------------------------------------|-------------------- 
p14s13----------12-14p13p12----------------------------|-------------------- 
-------14p13h14-------------14p13-11-14p13p11----11h13p|11-------11--------- 
----------------------------------------------14-------|---14-13----14-13--- 
-------------------------------------------------------|-------------------- 
-------------------------------------------------------|-------------------- 
 
                                                               1 1/2 
-------------------------------------14-16-17p16-14------------21b---------| 
----------------------------14-16-17----------------17-16-14-0-------------| 
----------------11-13-14s16------------------------------------------------| 
-11----11-13-14------------------------------------------------------------| 
----14---------------------------------------------------------------------| 
---------------------------------------------------------------------------| 
 
 
|-(21)~------21bfr-----|19-21-17-21-16-21----21----------17-21-19-17----19-- 
|----------------------|------------------19----17-19-21-------------21----- 
|----------------------|---------------------------------------------------- 
|----------------------|---------------------------------------------------- 
|----------------------|---------------------------------------------------- 
|----------------------|---------------------------------------------------- 
 
 
17----------17----16----|--------------------------------------------------| 
---21-19-------19----17-|-19p17p16-17p16-17-17~----5s7bfr------------7-5---| 
------------------------|--------------------------------------------------| 
------------------------|--------------------------------------------------| 
------------------------|--------------------------------------------------| 
------------------------|--------------------------------------------------| 
 
 
|--------------------------------------------------------------------------| 
|9-10-7-9-5-10p7-9p5-10p7-9p5-10p7-9s5-7p5p7---5---4-----------------------| 
|--------------------------------------------6---6---4-6bf~r---------------| 
|--------------------------------------------------------------------------| 
|--------------------------------------------------------------------------| 
|--------------------------------------------------------------------------| 
 
 
Keyboard solo 
 
|---------------------------------|----------------------------------------| 
|---------------------------------|----------------------------------------| 
|---------------------------------|----------------------------------------| 
|-7--7-7-7-7-7-7-7-7-7-7-7-7-7-7--|-7-7-7-7-7-7-7-7-7-7-7-7-7-7-7-7--------| 
|-5--5-5-5-5-5-5-5-5-5-5-5-5-5-5--|-5-5-5-5-5-5-5-5-5-5-5-5-5-5-5-5--------| 
|---------------------------------|----------------------------------------| 
 
 
|---------------------------------|----------------------------------------| 
|---------------------------------|----------------------------------------| 
|-------------------------------5-|-5-5-5-5-5-5----------------------------| 
|-7-7-7-7-7-7-7-7-7-7-7-7-7-7-7-3-|-3-3-3-3-3-3-5----5-5-5-5-5-5--7--------| 
|-5-5-5-5-5-5-5-5-5-5-5-5-5-5-5---|-------------3----3-3-3-3-3-3--5--------| 
|---------------------------------|----------------------------------------| 
 
 
|---------------------------------|----------------------------------------| 
|---------------------------------|----------------------------------------| 
|---------------------------------|----------------------------------------| 
|-7-7-7-7-7-7-7-7-7-7-7-7-7-7-7-7-|-7-7-7-7-7-7-7-7-7-7-7-7-7-7-7-7--------| 
|-5-5-5-5-5-5-5-5-5-5-5-5-5-5-5-5-|-5-5-5-5-5-5-5-5-5-5-5-5-5-5-5-5--------| 
|---------------------------------|----------------------------------------| 
 
 
|---------------------------------|----------------------------------------| 
|---------------------------------|----------------------------------------| 
|-------------------------------5-|-5-5-5-5-5-5----------------------------| 
|-7-7-7-7-7-7-7-7-7-7-7-7-7-7-7-3-|-3-3-3-3-3-3-5----5-5-5-5-5-5--5--------| 
|-5-5-5-5-5-5-5-5-5-5-5-5-5-5-5---|-------------3----3-3-3-3-3-3--3--------| 
|---------------------------------|----------------------------------------| 
 
 
Play fig 1 (intro) throughout chorus 
 
 
 
|-----------------------13-------13-15----13-15-17-13-15-17s18p17-15s13----| 
|-15~----13-15p13-15-17----15-17-------17----------------------------------| 
|--------------------------------------------------------------------------| 
|--------------------------------------------------------------------------| 
|--------------------------------------------------------------------------| 
|--------------------------------------------------------------------------| 
 
 
|17-15-13s12-15-13-12-13p12-------|21p18----21s18p15----18s15p12----15p12p9- 
|---------------------------15----|------20----------17----------14--------- 
|---------------------------------|----------------------------------------- 
|---------------------------------|----------------------------------------- 
|---------------------------------|----------------------------------------- 
|---------------------------------|----------------------------------------- 
 
    1/2     Liar... 
|---12br--|-----------|----10h13p10-t17p10h13p10-t18p10h13p10-t17p10h13p10-- 
|11-------|-10~-------|s13-------------------------------------------------- 
|---------|-----------|----------------------------------------------------- 
|---------|-----------|----------------------------------------------------- 
|---------|-----------|----------------------------------------------------- 
|---------|-----------|----------------------------------------------------- 
 
 
-t18p10h13p10-t17p10h13p10-t15p10h13p10|t15p10h13p10st15p9h12p9-t17p10h13p10 
---------------------------------------|------------------------------------ 
---------------------------------------|------------------------------------ 
---------------------------------------|------------------------------------ 
---------------------------------------|------------------------------------ 
---------------------------------------|------------------------------------ 
 
 
-t15p9h12p9-t17p10h13p10-t15p12p9h12p9h12h13p10h12p10-------------12-------| 
------------------------------------------------------13p10h13s15----------| 
---------------------------------------------------------------------------| 
---------------------------------------------------------------------------| 
---------------------------------------------------------------------------| 
---------------------------------------------------------------------------| 
 
 
|-13----12-13-15-12-13-15s17-13-15s17h18p15-17-18p17p15-21p15-17-18-17-15--- 
|----15--------------------------------------------------------------------- 
|--------------------------------------------------------------------------- 
|--------------------------------------------------------------------------- 
|--------------------------------------------------------------------------- 
|--------------------------------------------------------------------------- 
 
                             1/4           1/2   1/2    1/2   1/2    1/2 
21p15-17-18-17-15|-21p15--17-18b--17p15-18s21b-|-21b----21b---21b~---21b~--- 
-----------------|-----------------------------|---------------------------- 
-----------------|-----------------------------|---------------------------- 
-----------------|-----------------------------|---------------------------- 
-----------------|-----------------------------|---------------------------- 
-----------------|-----------------------------|---------------------------- 
 
 
|13-12-10s9-------------------------------| 
|-----------11-10-8-----------------------| 
|-------------------10-9-7s6--------------| 
|----------------------------8-7-5--------| 
|----------------------------------8-7-5--| 
|-----------------------------------------| 
 
_______________________________________________________ 
Contribuição: Diego Rafael Toni Antonio(diego_map@hotmail.com) 

	  

Request the video "Liar"  -  Send "Liar" Ringtone to your Cell

there isn't a video lesson for this song

request
e-chords
Search
auto scroll beats size up size down change color hide chords drawings
tab show chords e-chords YouTube Clip e-chords hide all tabs e-chords go to top tab