White Lion

home > White Lion > chords

When The Children Cry Tab

White Lion

Difficulty: ExpertExpert

by BlacKPheoNix

tuner correct add songbook print version text version rtf version e-mail
chordsukulelecavacokeyboardtabbassdrumsharmonicsflute Guitar Pro
chords

When The Children Cry

	  Intro 
|0-------12-------10-------8---7---10-------8-------7-------3-2-0-----| 
|--0---0----0---0----0---0---0---0----0---0---0---0---0---0-----------| 
|----0--------0--------0----------------0-------0-------0-------------| 
|---------------------------------------------------------------------| 
|---------------------------------------------------------------------| 
|0----------------------------------0-----------------------3-2-0-----| 

|-------12-------10-------8---7---10-------8-------7------------------| 
|-0---0----0---0----0---0---0---0----0---0---0---0---0---0--0-3-------| 
|---0--------0--------0----------------0-------0-------0--------------| 
|---------------------------------------------------------------------| 
|---------------------------------------------------------------------| 
|----------------------------------0------------------------3-2-------| 

	Em9	     Bm			C		G 
|-0-----------|--------2-----|-------------0-|------------------------| 
|----------0--|---3------3---|-1-------1h3---|---3--------------------| 
|--------0----|------------4-|---0---0-------|------------------------| 
|------4------|-4---4--------|-----2---------|-0---0------------------| 
|----2--------|--------------|-3-------------|------------------------| 
|-0-----------|--------------|---------------|--------3-2-------------| 

	Em9	     Bm			C		D 
|----------0--|--------2-----|-------------0-|--2-------2p3p2p0-------| 
|-------------|---3------3---|-1-------1h3---|----3---3---------3-----| 
|--------0----|------------4-|---0---0-------|------2-----------------| 
|------4------|-4---4--------|-----2---------|------------------------| 
|----2--------|--------------|-3-------------|------------------------| 
|-0-----------|--------------|---------------|------------------------| 

	D 
|-5-----------|-10-----------------|---------------|------------------| 
|---7---------|-10-----------------|---------------|------------------| 
|-----7-------|------7(mute)-------|---------------|------------------| 
|-------------|--------------------|---------------|------------------| 
|-------------|--------------------|---------------|------------------| 
|-------------|--------------------|---------------|------------------| 

Verse 1 
         little   Child		     dry you cryin eyes 
G		D		Em		Bm 
|--------------|----------------|---------------|--------2------------| 
|--0------0p1--|-------3-------3|---------------|---3------3----------| 
|----0---------|-----2---2---2--|--0-------0h2p0|------------4--------| 
|------0-------|---0-------0----|----2---2------|-4---4---------------| 
|--------2-----|----------------|------2--------|---------------------| 
|--------------|----------------|---------------|---------------------| 

	how can I explain    the fear you feel inside 
	C		G		Em9		D 
|-------------0-|-------------|----------------|-2-------2p3p2p0-----| 
|-1-------1h3---|---3---------|---------0------|---3---3---------3---| 
|---0---0-------|-------------|-------0--------|-----2---------------| 
|-----2---------|-0---0-------|-----4----------|---------------------| 
|-3-------------|-------------|---2------------|---------------------| 
|---------------|--------3-2--|-0--------------|---------------------| 
	 
cause you were born		into this evil world 
G		D		Em		Bm 
|--------------|----------------|---------------|--------2----------| 
|--0------0p1--|-------3-------3|---------------|---3------3--------| 
|----0---------|-----2---2---2--|--0-------0h2p0|------------4------| 
|------0-------|---0-------0----|----2---2------|-4---4-------------| 
|--------2-----|----------------|------2--------|-------------------| 
|--------------|----------------|---------------|-------------------| 
	where man is killing man for no one no just why 
	C		G		Em9		D 
|-------------0-|-------------|----------------|-2-------2p3p2p0-----| 
|-1-------1h3---|---3---------|----------0-----|---3---3---------3---| 
|---0---0-------|-------------|-------0--------|-----2---------------| 
|-----2---------|-0---0-------|-----4----------|---------------------| 
|-3-------------|-------------|---2------------|---------------------| 
|---------------|--------3-2--|-0--------------|---------------------| 


		what have we become	    just look what we have done 
	C		     Bm			Em9 
|-0-------0--------|--------2--------|-------------|-------2-------| 
|---1-------1------|---3------3------|----------0--|---3-----3-----| 
|-----0-------0----|------------4----|-------0-----|-----------4---| 
|-------2-------2--|-4---4-----------|-----4-------|-4---4---------| 
|-3----------------|-----------------|---2---------|---------------| 
|------------------|-----------------|-0-----------|---------------| 

         all that we destroyed   you must….build again 
								(pause) 
	C		G		Em9		D 
|-------------0-|-------------|----------------|-2-------3-------2| 
|-1-------1h3---|---3---------|----------0-----|---3---3---3---3--| 
|---0---0-------|-------------|-------0--------|-----2-------2----| 
|-----2---------|-0---0-------|-----4----------|------------------| 
|-3-------------|-------------|---2------------|------------------| 
|---------------|--------3-2--|-0--------------|------------------| 

Chorus: 
When the  
Child…………ren     cry		let them know we tried 
	Em9	     Bm			C		G 
|-0-----------|--------2-----|-------------0-|------------------------| 
|----------0--|---3------3---|-1-------1h3---|---3--------------------| 
|--------0----|------------4-|---0---0-------|------------------------| 
|------4------|-4---4--------|-----2---------|-0---0------------------| 
|----2--------|--------------|-3-------------|------------------------| 
|-0-----------|--------------|---------------|--------3-2-------------| 
cause when the children sing    then the new world begin 
	Em9	     Bm			C		D 
|----------0--|--------2-----|-------------0-|--2-------2p3p2p0-------| 
|-------------|---3------3---|-1-------1h3---|----3---3---------3-----| 
|--------0----|------------4-|---0---0-------|------2-----------------| 
|------4------|-4---4--------|-----2---------|------------------------| 
|----2--------|--------------|-3-------------|------------------------| 
|-0-----------|--------------|---------------|------------------------| 
		repeat 10 fade sound 
	D	 
|-5-----------|-10-----------------|---------------|------------------| 
|---7---------|-10-----------------|---------------|------------------| 
|-----7-------|--------------------|---------------|------------------| 
|-------------|--------------------|---------------|------------------| 
|-------------|--------------------|---------------|------------------| 
|-------------|--------------------|---------------|------------------| 
Repeat	 
Use tab in verse 1 but use this lyric 
(open electric guitar) 
G	D   
little child 
 Em       Bm 
you must show the way 
C        G 
to a better day 
     Em		D 
for all the young 
G		D 
cause you were born 
Em		Bm 
for all the world to see 
C	  G 
that we all can live 
Em	D 
with love and peace 
C	Bm 
no more presidents 
Em		Bm 
and all the wars will end 
C	G 
one united world 
Em	D 
under god 



	    Em	    Bm 
when the children cry 
   C	    G 
let them know we tried 
         Em	  Bm 
cause when the children sing 
  C		D 
then the new world begins 

SOLO: 
-------------------------------------------------12-------17^-17--19^-19-19-- 
----15^--17-13-15-12-------------15^---17---15------13-12-------------------- 
-12------------------14-12-11------------------------------------------------ 
-12---------------------------12--------------------------------------------- 
----------------------------------------------------------------------------- 
----------------------------------------------------------------------------- 

-20^-20-20-19-20-19---------------------------------------------------------- 
--------------------20-20^-(20)-19-17---------------------------------------- 
--------------------------------------19-19^-19p17p16-17p16-14-(14)^(14)p12-- 
----------------------------------------------------------------------------- 
----------------------------------------------------------------------------- 
----------------------------------------------------------------------------- 


----------------------------------------------------------------------------- 
-15^-15---------------------------------------------------------- 
------------------------------------------------------------------ 
------------------------------------------------------------------------- 
---------------------------------------------------------------------------- 
----------------------------------------------------------------------------- 


what "have we" become 
just look what we have done 
all that we destroyed 
you must build again 
no more presidents 
and all the wars will end 
one united world 
under god 

when the children cry 
let them know we tried 
when the children fight 
let them know it ain't right 
when the children pray 
let them know the way 
cause when the children sing 
then the new world begins 

|-5-----------|-10-----------------|---------------|------------------| 
|---7---------|-10-----------------|---------------|------------------| 
|-----7-------|-------7(mute)------|---------------|------------------| 
|-------------|--------------------|---------------|------------------| 
|-------------|--------------------|---------------|------------------| 
|-------------|--------------------|---------------|------------------|
	  

Request the video "When The Children Cry"  -  Send "When The Children Cry" Ringtone to your Cell

there isn't a video lesson for this song

request
Full key step upFull key step up
Half key step upHalf key step up
Half key step downHalf key step down
Full key step downFull key step down
Search
auto scroll beats size up size down change color hide chords drawings
tab show chords e-chords YouTube Clip e-chords hide all tabs e-chords go to top tab