Van Halen

home > Van Halen

love walks in (solo) Tab

Van Halen

Difficulty: AdvancedAdvanced

by steelersfan123

tuner correct add songbook print version text version save to e-mail
chordsukulelecavacokeyboardtabbassdrumsharmonicsflute Guitar Pro
chords

love walks in (solo)

	   
e|------15-----17--/17--------15-----15-----|--17--20--17--20b---13-| 
B|--/18----/20------------/18----18b----18--|-----------------------| 
G|------------------------------------------|-----------------------| 
D|------------------------------------------|-----------------------| 
A|------------------------------------------|-----------------------| 
E|------------------------------------------|-----------------------| 
 
  2:44                                     2:47 
e|--15-17-15b-13-13h15---13--16b--13--15-||------15-----17--/17------15-----15----| 
B|---------------------------------------||--/18----/20----------/18----18b----18-| 
G|---------------------------------------||---------------------------------------| 
D|---------------------------------------||---------------------------------------| 
A|---------------------------------------||---------------------------------------| 
E|---------------------------------------||---------------------------------------| 
 
  2:52                                     2:54 
e|--17-18-20-18h20p18-17-17h18p17\-------|---------------------------------------| 
B|---------------------------------------|--17^-17p14-----14----14*15------------| 
G|---------------------------------------|------------h17----17-------15---------| 
D|---------------------------------------|---------------------------------------| 
A|---------------------------------------|---------------------------------------| 
E|---------------------------------------|---------------------------------------| 
 
  2:56 
e|----------------------------------------------------------------------------------| 
B|----------------------------------------------------------------------------------| 
G|-------------------------------------------------------------------14h16h17-17-16-| 
D|---------------------------------------14h15h17----------14h15h17-----------------| 
A|-----------14h15h17----------14h15h17-----------14h15h17--------------------------| 
E|--14h15h17----------14h15h17------------------------------------------------------| 
 
  2:58 
e|---------------------------------------/22\20-------------------| 
B|---------------------------/22\20-------------------------------| 
G|-17----------17---17/19/17--------------------19^19-17h19p17----| 
D|----------17----------------------------------------------------| 
A|----------------------------------------------------------------| 
E|----------------------------------------------------------------| 
 
  3:10                                      3:21 
e|------------------15/20----------------------|| 
B|-------------------------------17h20p17------|| 
G|----17---19T--21----------19^-----------/19--|| 
D|--/17----------------------------------------|| 
A|---------------------------------------------|| 
E|---------------------------------------------|| 

	  

there isn't a video lesson for this song

request
Search
auto scroll beats size up size down change color hide chords drawings
tab show chords e-chords YouTube Clip e-chords hide all tabs e-chords go to top tab