Van Halen

home > Van Halen

Beautiful Girls Tab

Van Halen

Difficulty: BeginnerBeginner

by 2u4ubyu

tuner correct add songbook print version text version save to e-mail
chordsukulelecavacokeyboardtabbassdrumsharmonicsflute Guitar Pro
chords

Beautiful Girls

	  Beautiful Girls   
by Van Halen 
 
			 
Main Riff (intro)		1,2,3| 4 
-------------------------------------|--------------------------- 
-------------------------------------|--------------------------- 
----2-H-H--2----2-2-----------------.|--------------------------- 
--2-2--3-4-2----2-2-----P---X-5-5/6-.|-7-6\4--------------------- 
--------------------4--5-2--X-5-6/7--|-5-4\2--------------------- 
--------------2----------------------|--------------------------- 
              T 
 
Verses (slightly muted) 
-------------------O- 
-------------------O- 
--------------------- 
----------4---P------ Etc. He does simple variations on this throughout 
------2-4-5--4-O-4---      The verses. 
--O-O-O-------------- 
 
Bridge (These are the chords, I'm not going to try to notate the rythmn) 
F#/A / / / / /	         B / / / / / / / / / / 
---------------------------|-------------------------| 
--2------------------------|-------------------------| 
--2-------------P-P-------.|------------------------.| 
--2------------4-2-O------.|-4--------4-2-O---4-----.| 
--O------------------2-----|-2--------------2-2------| 
--2------------------------|-------------------------| 
..What a sweet talkin honey 
whith a little bit of money.... 
 
E    F# G        A      B   C 
Here I am,  Your man of the world 
E   F#  G        A      B  C 
All I need, Is a beautiful girl 
G     C      D       E 
Ahhhh yeah, beautiful girls 
 
(And in the outro Chorus he does this:) 
D    A              E 
Ahhh yeah, beautiful girls               
								 ____ 
 
********* 
You found it at E-Chords 
Submitted By: David Campbell 
Ontario Canada  
 

	  

there isn't a video lesson for this song

request
Full key step upFull key step up
Half key step upHalf key step up
Half key step downHalf key step down
Full key step downFull key step down
Search
auto scroll beats size up size down change color hide chords drawings
tab show chords e-chords YouTube Clip e-chords hide all tabs e-chords go to top tab