Twinkle Brothers

home > Twinkle Br... > chords

Babylon falling Tab

Twinkle Brothers

Difficulty: BeginnerBeginner

tuner correct add songbook print version text version rtf version e-mail
chordsukulelecavacokeyboardtabbassdrumsharmonicsflute Guitar Pro
chords

Babylon falling

	  
|     Bm      Bm      Bm      Bm  |    F#m     F#m     F#m     F#m  |
|---------------------------------|---------------------------------|
|---4-4-2-2-0-0-------------------|---------------------------------|
|-5-------------2-2---------------|-2-5-5-4-4-0-0-------------------|
|---------------------------------|---------------2-0-2-2-----------|


Chorus :
|     Bm      Bm      Bm      Bm  |    F#m     F#m     F#m     F#m  |
|---------------------------------|---------------------------------|
|-4---2---0-------4---2---0---4---|---------------------------------|
|-------------2-------------------|-2-5-5-4-4-0-0-------------------|
|---------------------------------|---------------2-0-2-2-----------|


Outro :
|     Bm      Bm      Bm      Bm  |    F#m     F#m     F#m     F#m  |
|---------------------------------|---------------------------------|
|---------------------------------|---------------------------------|
|-2-2-2-5-5-2-----2-2-2-5-5-2-----|---------------------------------|
|---------------------------------|-2-2-2-5-5-2-----2-2-2-5-5-2-----|
	  

Request the video "Babylon falling"  -  Send "Babylon falling" Ringtone to your Cell

there isn't a video lesson for this song

request
Full key step upFull key step up
Half key step upHalf key step up
Half key step downHalf key step down
Full key step downFull key step down
e-chords
Search
auto scroll beats size up size down change color hide chords drawings
tab show chords e-chords YouTube Clip e-chords hide all tabs e-chords go to top tab