Toto

home > Toto

Rosanna Tab

Toto

Difficulty: ExpertExpert

tuner correct add songbook print version text version save to e-mail
chordsukulelecavacokeyboardtabbassdrumsharmonicsflute Guitar Pro
chords

Rosanna

	  This is tab to the solo in Rosanna

E------------------------------------------------------6-----
B-------------------------6-6\------8-8p6--8b10--8b10--------
G---------------------/5-------/5----------------------------
D-3--3-3--5-5/7-7~-------------------------------------------
A------------------------------------------------------------
E------------------------------------------------------------


E------------------------------------------------------------
B-8b10b8p6--8-6~/-----------------------9-10-13-10-11-13-----
G--------------------------------10-12-----------------------
D--------------------------10-12-----------------------------
A--------------------10/12-----------------------------------
E------------------------------------------------------------

E-9-10-13-10-13-13(15)(15)-13~--13(15)(15)13~--15-13-15-----
B------------------------------------------------------------
G------------------------------------------------------------
D------------------------------------------------------------
A------------------------------------------------------------
E------------------------------------------------------------

   B           R
E-15(17)(18)-(17)15-13~\--------------------------------------
B------------------------------------------------------------
G------------------------------------------------------------
D------------------------------------------------------------
A------------------------------------------------------------
E------------------------------------------------------------

Fade-out solo to "Roseanna" by Toto

See notation from first solo.


-12b13b12-10----10------------------12-------12-------------
-------------13----11b12------15b17----15b17----15b18-b18~--
-------------------------12~--------------------------------
------------------------------------------------------------
------------------------------------------------------------
------------------------------------------------------------


-------15-------------------------18b21b18-15---------------
-18b20----18-15-18b20-b20~--18-15-------------18-15---------
------------------------------------------------------------
------------------------------------------------------------
------------------------------------------------------------
------------------------------------------------------------

-----------------------------------------15-----------------
-18b22b18-15-----18b20-18b20b18p15-18b20----18b20~----------
-------------17---------------------------------------------
------------------------------------------------------------
------------------------------------------------------------
------------------------------------------------------------


--------17-20p17-18p17----17--------------------------------
-----18----------------20----18p17-20-(15)-18p17-15-18p17---
-/17--------------------------------------------------------
------------------------------------------------------------
------------------------------------------------------------
------------------------------------------------------------


------------------------------------------------------------
-15h17p15---------------------------------------------------
----------17p14-17-14-16-13--15-17-14h15p14-----------------
--------------------------------------------17~\------------
------------------------------------------------------------
------------------------------------------------------------



------------------------------------------------------------
-----------------------------------------------15-18\15-13--
-----------------------------14-15-17-14-15-17--------------
--------------------14-15-17--------------------------------
-----------13-15-17-----------------------------------------
-/13-15-17--------------------------------------------------


------------------------------------------------------------
----15------------------------------------------------------
-15----(14)-15b14--12----15-12~\-----------15----15----15---
----------------------15---------(/12)-/15----15----15------
------------------------------------------------------------
------------------------------------------------------------


------------------------------------------------------------
------------------------------------------------------------
----15----17----15----17b19-15-17b19-15-17-15---------------
-15----15----15----15-------------------------17~\----------
------------------------------------------------------------
------------------------------------------------------------

The ... represents repeating the previous riff lots of times.

-------10------------12---------------------15-------15-----
-13b15----...--15b17----...--15b18~---18b20----18b20--------
-----------------------------------------------------------
------------------------------------------------------------
------------------------------------------------------------
------------------------------------------------------------


-18p15----15-------------15---------------------------------
-------18----18-------15----------------------------18------
----------------17b19-------17b18b17p15-------------17b19---
----------------------------------------17-15-17-15---------
------------------------------------------------------------
------------------------------------------------------------


The T indicates a right-hand tapping thing. the ... represents
more repetitions. 

------------------------------------------------------------
------------------------------------------------------------
-3-----h10Tp5p3h10Tp5p3h10Tp5p3-h7Tp5p3h10Tp5p3-...---------
---5~\------------------------------------------------------
------------------------------------------------------------
------------------------------------------------------------

	  

there isn't a video lesson for this song

request
Search
auto scroll beats size up size down change color hide chords drawings
tab show chords e-chords YouTube Clip e-chords hide all tabs e-chords go to top tab