Toto

home > Toto

Party In Simon's Pants Tab

Toto

Difficulty: ExpertExpert

tuner correct add songbook print version text version save to e-mail
chordsukulelecavacokeyboardtabbassdrumsharmonicsflute Guitar Pro
chords

Party In Simon's Pants

	  Riff a:

e-----------------------------------------------------------------|
B-----------------------------------------------------------------|
G-----------------------------------------------------------------|
D--------0--3--2-2-3----------------------------------------------|
A-----1-------------------1-5-4-4-5---1---------------------------|
E--3------------------3-1-----------1---3-------------------------|


Riff b:   a couple of times
e--3-3-3--3-3-3--3-3-3--3-3-3-------------------------------------
B--3-3\1--3-3\1--3-3\1--3-3\1-------------------------------------
G-----------------------------------------------------------------
D-------------------------------0-3^2^0---0-----------------------
A---------------------------------------3---3~--------------------
E-----------------------------------------------------------------

followed by :

e--3---2---3---2---3---2---------------------------------------------|
B--3---3---3---3---3---3-----3--1--3--1--3--1------------------------|
G--2---2---2---2---2---2-----2--0--2--0--2--0--5(6)^3---5-3------3/5-|
D----------------------------------------------5(6)---5-----5^3--3/5-|
A----------------------------------------------------------------1/3-|
E--------------------------------------------------------------------|

and back to main riff
	  

there isn't a video lesson for this song

request
Search
auto scroll beats size up size down change color hide chords drawings
tab show chords e-chords YouTube Clip e-chords hide all tabs e-chords go to top tab