Toto

home > Toto

Out of love Tab

Toto

Difficulty: ExpertExpert

tuner correct add songbook print version text version save to e-mail
chordsukulelecavacokeyboardtabbassdrumsharmonicsflute Guitar Pro
chords

Out of love

	  
Riff a:

   F  Fsus2 Fsus4 F   F  Fsus2 Fsus4 F Fsus2  Dm  C

e|-1----1----1----1-|-1----1----1----1---1----1---3-|
B|-1----1----1----1-|-1----1----1----1---1----3---3-|
G|-2----0----3----2-|-2----0----3----2---0----2---0-|
D|-3----3----3----3-|-3----3----3----3---3----0---2-|
A|-3----3----3----3-|-3----3----3----3---3--------3-|
E|------------------|-------------------------------|

Verse w/ Riff a
C         Bb/D           F    Dm C           Bb/D           F     Am  C
Take me a picture of two lovers, show me the love was torn apart
Dm          Dm/C                     Bb       Am     Gm
You made me fall in love with you, a dance of lovers takes two
            C            Bb               F
Somehow the music stopped, and so did our love

I tried to put the pieces together, and I got a grip on my life
They say there's one born every minute who has all for a lifetime
What good is a lifetime if I can't be with you

Dm           G         Dm         G          Em          A
I just wanna hold you, just wanna touch you, just let me love you
       Bb                Am                  Gm      C#
When I see your face, my heart cries out for you
             F                C       Bb          F
I guess that fools never learn how to fall out of love

I do admit I really miss you, there are some things time cannot change
And I would be a liar baby, if I told you I didn't care
Cause it makes a difference, baby when you're not there

Chorus

Guitar solo

     b                       hold bending      pre-b  p.o.
e|-15-(17)-13----13-------|------------------------------------------|
B|------------15----15-15-|-13-(15)-(15)-(15)------------------------|
G|------------------------|-------------------(14)-12-11-10----12-10-|
D|------------------------|---------------------------------12-------|
A|------------------------|------------------------------------------|
E|------------------------|------------------------------------------|

     hold b         b  release slowly       hold bending
e|--------------|-15-(17)-(17)-(17)-(17)--15-(17)-(18)-(17)-12--9-12-|
B|--------------|----------------------------------------------------|
G|-12-(14)-(14)-|----------------------------------------------------|
D|--------------|----------------------------------------------------|
A|--------------|----------------------------------------------------|
E|--------------|----------------------------------------------------|

e|-------------------------------------------------------------------|
B|-15-13-------------------------------------------------------------|
G|-------12-10----10-12-10----10-------------------------------------|
D|-------------12----12-10----10-------------------------------------|
A|-------------------------12----------------------------------------|
E|-------------------------------------------------------------------|

I just wanna hold you, just wanna touch you, just let me love you
When I see your face, my heart, my heart goes crazy baby
It's what's calling your name

I just wanna hold you, just wanna touch you, I just wanna hold you
When I see your face, my heart cries out for you
I guess that fools never learn how to fall out of love
	  

there isn't a video lesson for this song

request
Full key step upFull key step up
Half key step upHalf key step up
Half key step downHalf key step down
Full key step downFull key step down
Search
auto scroll beats size up size down change color hide chords drawings
tab show chords e-chords YouTube Clip e-chords hide all tabs e-chords go to top tab