Toto

home > Toto > chords

Mad About You Tab

Toto

Difficulty: ExpertExpert

tuner correct add songbook print version text version rtf version e-mail
chordsukulelecavacokeyboardtabbassdrumsharmonicsflute Guitar Pro
chords

Mad About You

	  w/delay
Slightly muted
   >         >         >       >   4 times
e|--------------------------------------|
B|-0-0--0-0--0-0--0-0--0-0--0--0--0-5-4-|
G|--------------------------------------|
D|--------------------------------------|
A|--------------------------------------|
E|--------------------------------------|

3rd time 2nd guitar plays: 
                     2 times
e|--0--0--0--0--0--0-|
B|-/9--7--5--4--2--0-|
G|-------------------|
D|-------------------|
A|-------------------|
E|-------------------|

        E                                     C#m
There's something I must say something I must do
  E                       C#m
I planned it all this way designed it just for you
       A                                 E
Do you wanna be with me... be with me at all
       A                C#m     E/G#         
Do you have to be so cool? your gentle touch maneuvered me
    A                     B
But all the time I always knew

E
I'm really mad about you
E                             B
There's nothing bad about our love
F#m                     C#m
I'm giving you the only heart I have
         E                A         B
But I'm afraid tonight it won't be enough

Can we go on this way there's nothing left to prove
It's not another game or another simple move
Do you believe in me... believe in me at all
Ar you telling me the truth? Is it just imagination
Or the perfect dream that I'm here with you

Chorus

Guitar solo

      E              C#m
e|--------------|------------------|
B|----5-5--/7-7-|----5-5--/7-7-5---|
G|-/4-----------|-/4-------------6-|
D|--------------|------------------|
A|--------------|------------------|
E|--------------|------------------|

      E                             C#m
                    hold b.
e|-----------------------7-----|----------------------------|
B|----5-5--/7-7--5-7-(9)---(9)-|----5-5--7-7-5--------------|
G|-/4--------------------------|-/4------------6--6-4-6/9-6-|
D|-----------------------------|----------------------------|
A|-----------------------------|----------------------------|
E|-----------------------------|----------------------------|

       A                                 E
Do you wanna be with me... be with me at all
       A                C#m     E/G#         
Do you have to be so cool? your gentle touch maneuvered me
    A                     B
But all the time I always knew

E
I'm really mad about you
E                             B
There's nothing bad about our love
F#m                     C#m
I'm giving you the only heart I have
         E                A         B
But I'm afraid tonight it won't be enough

E
I'm really mad about you
E                             B
There's nothing bad about our love
F#m                  C#m
I never had a broken heart before
      E/G#                A          B
But I know you never tell, tell me to go


w/delay
Slightly muted
   >         >         >       >   4 times
e|--------------------------------------|
B|-0-0--0-0--0-0--0-0--0-0--0--0--0-5-4-|
G|--------------------------------------|
D|--------------------------------------|
A|--------------------------------------|
E|--------------------------------------|


3rd time 2nd guitar plays: 
                     2 times
e|--0--0--0--0--0--0-|
B|-/9--7--5--4--2--0-|
G|-------------------|
D|-------------------|
A|-------------------|
E|-------------------|

end on E
	  

Request the video "Mad About You"  -  Send "Mad About You" Ringtone to your Cell

there isn't a video lesson for this song

request
Full key step upFull key step up
Half key step upHalf key step up
Half key step downHalf key step down
Full key step downFull key step down
Search
auto scroll beats size up size down change color hide chords drawings
tab show chords e-chords YouTube Clip e-chords hide all tabs e-chords go to top tab