Toto

home > Toto

Home Of The Brave Tab

Toto

Difficulty: ExpertExpert

tuner correct add songbook print version text version save to e-mail
chordsukulelecavacokeyboardtabbassdrumsharmonicsflute Guitar Pro
chords

Home Of The Brave

	  Riff a 4 times
e|--------------------------------------10--------------|
B|--------------10--9--12---10--12--14------14--10------|
G|--------9--7------------------------------------------|
D|--9--7--------------------------------------------12--|
A|------------------------------------------------------|
E|------------------------------------------------------|


E    C#m               B           E
Everything's gonna be alright boys
C#m            B
Help is on the way
A                      C#m B
Hold your head up high now
                       E/G# A
There's no need to cry now
          E/G#       B
We're not running anymore

B         G#m        F#        B
Leave the politics behind boys
            G#m        F#
They're not working anymore
E                             D#m F#
There's so much more at stake here
                   B/D# E
It's make or break here
        D#             A/C 
Haven't we been here before


Riff b:

 >       >         >                   >       >         >           >
e|-------------------------------------------------------------------------|
B|-------------------------------------------------------------------------|
G|-------------------------------------------------------------------------|
D|--2------4---------6-------------------6-------9---------9-----------11--|
A|--0-0-0--2--0-0-0--4--0-0-0-0-0-0-0-0--4--0-0--6--0-0-0--7--0-0-0-0--9---|
E|-------------------------------------------------------------------------|

    E                  F# E
    Tell me what we're waiting for
e|-----------------------------------------|
B|-----------------------------------------|
G|-----------------------------------------|
D|--2------------------11-9----------------|
A|--2------------------9--7----6--4--2--0--|
E|--0--------------------------------------|

Chorus
    E                  C#m           B          A
You gotta remember you don't have to be afraid
    E                                   C#m          B          A
You still have the freedom to learn and say what you wanna say
    E              C#m           B
You gotta remember don't let 'em take away
    C                A    B  E   E
The land we call the home of the brave


Who sings the song of the people you don't hear it anymore
I heard it late last summer
To the beat of a different drummer
It never sounded quite like that before

So you're trying to shake this feeling
That trouble's right outside the door
You lie awake each dark night like a time bomb wound up too tight
A storm in waiting just offshore

Riff b

Tell me what we're waiting for

Chorus

Riff C:
e|--8--8-7--7-8--8-7--7-8--8-7--|--7-8--8-7--7-8-7-8-10-8-7-8-7--|
B|--8--8-8--8-8--8-8--8-8--8-8--|--8-8--8-8--8-8-8-8-8--8-8-8-8--|
G|------------------------------|--------------------------------|
D|------------------------------|--------------------------------|
A|------------------------------|--------------------------------|
E|------------------------------|--------------------------------|

                               >
e|---------------------------------|------------------------------|
B|--------------10--9--12--10--14--|--14-12-10---12-10-9---9-8-7--|
G|--------9--7---------------------|------------------------------|
D|--9--7---------------------------|------------------------------|
A|---------------------------------|------------------------------|
E|---------------------------------|------------------------------|

    >             >          >                 >
e|------------------------------------------------|
B|--12--10--9--7--9--8--7----9--7-----------------|
G|------------------------9--------9--7--6--------|
D|------------------------------------------9--7--|
A|---------------------------------------------0--|
E|------------------------------------------------|


2 times
e|---------------------------------------10--------------|
B|--------------10--9--12----10--12--14------14--10------|
G|--------9--7-------------------------------------------|
D|--9--7---------------------------------------------12--|
A|-------------------------------------------------------|
E|-------------------------------------------------------|

                                                       >  >  >
e|-------------8------------|-----------5-----------|--------------|
B|--8--10--12----12--8------|--5--7--9-----9--5-----|--7--5--4--2--|
G|--------------------------|-----------------------|--------------|
D|----------------------10--|--------------------7--|--------------|
A|--------------------------|-----------------------|--------------|
E|--------------------------|-----------------------|--------------|

Chorus x2


Riff a 3 times

4th
e|---------------------------------------10--|
B|--------------10--9--12----10--12--14------|
G|--------9--7-------------------------------|
D|--9--7-------------------------------------|
A|-------------------------------------------|
E|-------------------------------------------|

Riff C (fade out)
	  

there isn't a video lesson for this song

request
Full key step upFull key step up
Half key step upHalf key step up
Half key step downHalf key step down
Full key step downFull key step down
Search
auto scroll beats size up size down change color hide chords drawings
tab show chords e-chords YouTube Clip e-chords hide all tabs e-chords go to top tab