Toto

home > Toto

High Price Of Hate Tab

Toto

Difficulty: nolevelnolevel

tuner correct add songbook print version text version save to e-mail
chordsukulelecavacokeyboardtabbassdrumsharmonicsflute Guitar Pro
chords

High Price Of Hate

	  					      w/bar (with palm)
					      \/
 |-----------------------------------------------------------------------| 
 |---12-----12-----12-----------8------10----(12)-(10)---5-----5---------|
 |---12-----11-----10-----------7------9-----(11)-(9)----4-----3---------|    X 2
 |---12-----11-----10-----------7------9-----(11)-(9)----4-----3---------|
 |-----------------------------------------------------------------------|
 |---0------0------0------------0------0-----(0)--(0)----------------3---|
    
    
	                                     w/bar (with palm)
					      \/
 |-----------------------------------------------------------------------|
 |---12-----12-----12-----------8------10----(12)-(10)---5-----5---------|
 |---12-----11-----10-----------7------9-----(11)-(9)----4-----3---------|
 |---12-----11-----10-----------7------9-----(11)-(9)----4-----3---------|
 |---0------0------0------------0------0-----(0)--(0)--------------------|
 |-------------------------------------------------------4-----3---------|
							 |_____|
							  inch

 |---------------------------------3----3----3----------------3----------|
 |--------0------------0-----------5----4----3----------------3----------|
 |------2---2--------0---0---------5----4----3----------------2----------|
 |----2-------2----1-------1-----------------3----------------1----------|
 |---------------------------------5----4----3------0--1--2---2----------|
 |--0------------0-------------------------------------------------0-----|
	  

there isn't a video lesson for this song

request
Search
auto scroll beats size up size down change color hide chords drawings
tab show chords e-chords YouTube Clip e-chords hide all tabs e-chords go to top tab