Toto

home > Toto

Hero With 1,000 eyes Tab

Toto

Difficulty: nolevelnolevel

tuner correct add songbook print version text version save to e-mail
chordsukulelecavacokeyboardtabbassdrumsharmonicsflute Guitar Pro
chords

Hero With 1,000 eyes

	  (original version 1/2 step Down)

INTRO
-----
(1)
E-||-------------------|----------------|------------------|-----------------||
H-||-------------------|----------------|------------------|-----------------||
G-||.------------------|----------------|------------------|----------------.||
D-||.------------------|----------------|------------------|----------------.||
A-||--------7--9--10---|-9--10----9--10-|------7--9--10----|-9--10-----3--2--||
E-||--0--7-----------8-|------10--------|-0--7-----------8-|--------3--------||

Verse 1.
--------
(2)  E                                     B                 A
E-|---------|----------|-------|--------|--------|---------|---------|--------|
H-|---------|----------|-------|--------|--------|---------|---------|--------|
G-|---------|----------|-------|--------|--------|---------|---------|------7-|
D-|---------|----------|-------|--------|--------|---------|---------|--4/7--9|
A-|---------|----------|-------|--------|--------|---------|---------|--------|
E-|---0-----|----------|-------|--------|--------|---------|---------|--------|


     E                              B                G  A      B  C  D 
E-|-------|-------|-------|-------|-------|-------|--------|-------------|
H-|-------|-------|-------|-------|-------|-------|--------|-------------|
G-|-------|-------|-------|-------|-------|-------|--------|-------------|
D-|-------|-------|-------|-------|-------|-------|--------|---4--5--7---|
A-|-------|-------|-------|-------|-------|-------|--5--7--|---2--3--5---|
E-|-------|-------|-------|-------|-------|-------|--3--5--|-------------|

Lick: (1)
-----------

Verse 2.
---------
     E                                     B                 A
E-|---------|----------|-------|--------|--------|---------|---------|--------|
H-|---------|----------|-------|--------|--------|---------|---------|--------|
G-|---------|----------|-------|--------|--------|---------|---------|------7-|
D-|---------|----------|-------|--------|--------|---------|---------|--4/7--9|
A-|---------|----------|-------|--------|--------|---------|---------|--------|
E-|---0-----|----------|-------|--------|--------|---------|---------|--------|


     E                              B                                  
E-|-------|-------|-------|-------|-------|-------|--------|--------|
H-|-------|-------|-------|-------|-------|-------|--------|--------|
G-|-------|-------|-------|-------|-------|-------|--------|--------|
D-|-------|-------|-------|-------|-------|-------|-12-11--|---9-7--|
A-|-------|-------|-------|-------|-------|-------|--------|--------|
E-|-------|-------|-------|-------|-------|-------|--------|--------|

E-|---------|--------|--------|-------|
H-|---------|--------|--------|-------|
G-|---------|--------|--------|-------|
D-|--12-11--|--9--7--|--------|-------|
A-|---------|--------|--------|-------|
E-|---------|--------|--------|-------|

Chorus:
--------
     D                       G                         C          A
E-|-----|--------|---------|------|--------|---------|------|-----------|
H-|-----|--------|---------|------|--------|---------|------|-----------|
G-|-----|-----7--|------7--|------|-----7--|------7--|------|-----------|
D-|--7--|---7----|----7----|------|----7---|----7----|-5----|-----------|
A-|--5--|-9------|--9------|-5----|--------|---------|-3----|-----7-7---|
E-|-----|--------|---------|-3----|--5-----|--7------|------|-----5-5---|     


     D                       G                         C      Em/B        D   
E-|-----|--------|---------|------|--------|---------|-----------------|------|
H-|-----|--------|---------|------|--------|---------|-----------------|--3---| 
G-|-----|-----7--|------7--|------|-----7--|------7--|-----0-------0---|--2---|
D-|--7--|---7----|----7----|------|----7---|----7----|---2------0------|--0---| 
A-|--5--|-9------|--9------|-5----|--------|---------|-3------2--------|------|
E-|-----|--------|---------|-3----|--5-----|--7------|-----------------|------|

   
    C       Em/B       D      C       Em/B       D
E-|-----------------|-------|----------------|-------|  
H-|-----------------|--3----|----------------|---3---|
G-|------0-------0--|--2----|------0------0--|---2---|
D-|----2-------0----|--0----|----2------0----|---0---|
A-|--3-------2------|-------|--3------2------|-------|
E-|-----------------|-------|----------------|-------|

Lick :(1)   4 times
---------

Solo:
-----

Chorus:
--------
     D                       G                         C          A
E-||------|--------|---------|------|--------|---------|------|-----------|
H-||------|--------|---------|------|--------|---------|------|-----------|
G-||.-----|-----7--|------7--|------|-----7--|------7--|------|-----------|
D-||.--7--|---7----|----7----|------|----7---|----7----|-5----|-----------|
A-||---5--|-9------|--9------|-5----|--------|---------|-3----|-----7-7---|
E-||------|--------|---------|-3----|--5-----|--7------|------|-----5-5---|     


     D                       G                         C      Em/B         
E-|-----|--------|---------|------|--------|---------|-----------------||
H-|-----|--------|---------|------|--------|---------|-----------------||
G-|-----|-----7--|------7--|------|-----7--|------7--|-----0-------0--.||
D-|--7--|---7----|----7----|------|----7---|----7----|---2------0-----.|| 
A-|--5--|-9------|--9------|-5----|--------|---------|-3------2--------||
E-|-----|--------|---------|-3----|--5-----|--7------|-----------------||


     D        C       Em/B       D      C       Em/B       D
E-|--------|----------------|-------|----------------|-------|  
H-|--3-----|----------------|--3----|----------------|---3---|
G-|--2-----|-----0-------0--|--2----|------0------0--|---2---|
D-|--0-----|---2-------0----|--0----|----2------0----|---0---|
A-|--------|-3-------2------|-------|--3------2------|-------|
E-|--------|----------------|-------|----------------|-------|


Lick: (1)     8 times          ...fade out.
-----------
	  

there isn't a video lesson for this song

request
Full key step upFull key step up
Half key step upHalf key step up
Half key step downHalf key step down
Full key step downFull key step down
Search
auto scroll beats size up size down change color hide chords drawings
tab show chords e-chords YouTube Clip e-chords hide all tabs e-chords go to top tab