Toto

home > Toto

Gypsy train Tab

Toto

Difficulty: ExpertExpert

tuner correct add songbook print version text version save to e-mail
chordsukulelecavacokeyboardtabbassdrumsharmonicsflute Guitar Pro
chords

Gypsy train

	  Intro:
e|----------|----------------------|---------|-----------------|
B|-7--9-9-9-|------------7--7-7--7-|----9--7-|-----------------|
G|-7--9-9-9-|-10-9-7--9--7--7-7--7-|----9--7-|-10-9-7--9--7--7-|
D|-7--9-9-9-|-10-9-7--9--7--7-7--7-|----9--7-|-10-9-7--9--7--7-|
A|----------|----------------------|-7-------|-----------------|
E|----------|----------------------|---------|-----------------|

Riff 1a:
e|---------------------------------|----------------------------------|
B|---------------------------------|----------------------------------|
G|---------------------------------|----------------------------------|
D|---------------------------------|----------------------------------|
A|-------------------------------1-|------------------------3-5-3-1---|
E|-3--1-1--3-3--1-1--3-3--1-1--3---|-3--1-1--3-3--1-1--3-3----------1-|

Downtown Jimmy say you're feelin' kinda blue
It's no problem this is whatcha gotta do
Telephone your baby tell her that you're workin' late
Come and pay a visit please don't hesitate

Riff 1b:
e|---------------------------------|----------------------------------|
B|---------------------------------|----------------------------------|
G|---------------------------------|----------------------------------|
D|---------------------------------|-------------------------------1--|
A|-------------------------------3-|-3--1-1--3-3--1-1--3-3--1-1--3----|
E|-5--3-3--5-5--3-3--5-5--3-3--5---|----------------------------------|

Come join the party come along and be our guest
Sit back and let us do the rest we're the best

D
Come on an' meet me at the station
D
Don't pack your bags just fix your hair
D
Gotta get up gotta get in gotta get out
D
Just look for me I'm always there

              G     F         C      G 
Come on let's ride ride that gypsy train
     G         F          C   G
All aboard now don't you be afraid
              G     F         C      G
Come on let's ride ride that gypsy train
         F              C              G
Feed the fire let's go one more time again

Medication little love and sympathy
Cool libation it's complimentary
Play a little poker love when the stakes are high
Lotta nasty women givin' everyone the eye
Say downtown Jimmy tell me whatcha need
Satisfaction guaranteed

It's a perfect situation
It's so nice to have you here
Gotta get up gotta get in gotta pull out
Happy shiny people everywhere

Chorus

Guitar solo

It's a perfect situation
It's so nice to have you here
Gotta get up gotta get in gotta put out
Happy shiny people everywhere

Chorus
	  

there isn't a video lesson for this song

request
Full key step upFull key step up
Half key step upHalf key step up
Half key step downHalf key step down
Full key step downFull key step down
Search
auto scroll beats size up size down change color hide chords drawings
tab show chords e-chords YouTube Clip e-chords hide all tabs e-chords go to top tab