Toto

home > Toto

Goin' Home Tab

Toto

Difficulty: AdvancedAdvanced

tuner correct add songbook print version text version save to e-mail
chordsukulelecavacokeyboardtabbassdrumsharmonicsflute Guitar Pro
chords

Goin' Home

	  Intro: Em  D  A    x2
       Em  D

e|-5--7--7-7-7--5--5-5-5-|
B|-5-(5)-5-5-5-(5)-5-5-5-|
G|-----------------------|
D|-----------------------|
A|-----------------------|
E|-----------------------|

                          fade out
e|-5--7--7-7-7--5--5-5-5--3-|
B|-5-(5)-5-5-5-(5)-5-5-5--3-|
G|--------------------------|
D|--------------------------|
A|--------------------------|
E|--------------------------|

G                         (A7)
Midnight on a southern highway
G
Don't know if I'm going the right way
G                Bm     A/B      G
I haven't seen a single sign for miles
G                  (A7)
All this stormy weather
G
Keeping us from being together
G               Bm              A/B       G
How long has it been since I've seen your smile

G                         D/F#
In this tunnel called the night
                    Bm
I can finally see a light
           Bm      A    Em
I've got a burning deep inside
                         D/F#
I thought you might understand
                      Bm
I'm driving fast as I can
                   A
And you said you'd wait for me

      D                 G    Bm   A
Goin' Home - Cause I've been away much too long
e|---------------------------------------------5-x-x-5-|
B|----3---------------------------3-2-2--------5-x-x-5-|
G|----2-------------------4-------2-2-2----------------|
D|----0-----------------5-------0---2-2----------------|
A|----------------------------2-----0-0----------------|
E|-----------------------------------------------------|
      D            G           Bm             A
Goin' Home - Going back to the place where my heart belongs
      D/F#         G            Bm      A
Goin' home - Going back where I left my family
      D/F#         G                 Bm            A
Goin' Home - And I hope that they're still waiting there for me

Intro

In the eyes of the legal tender
You're the one who must surrender
I think they call it responsibility
I'm a man in motion
With only one compulsion
I've got to follow these dreams inside my heart

I'm not looking for a fight
No one's wrong and no one's right
And maybe we all need time apart
So please understand 
I'm doing the best that I can
And you said you'd wait for me

Goin' Home - Cause I've been away much too long
Goin' Home - Going back to the place where my heart belongs
Goin' home - Going back where I left my sanity
Goin' Home - And I hope that it's still waiting there for me

Intro

Guitar solo:

  Bm  A/C#  D  E E B B
                             b
e|---------------------|-------------------|
B|---------------------|---17-(19)-(17)----|
G|---------------------|----------------16-|
D|-------------9-9-----|-------------------|
A|-2---4----5--7-7-----|-------------------|
E|-----------------7-7-|-------------------|


  Bm  A/C#  D  E E B B
                             b  (release slowly)       b
e|---------------------|-----------------------------17-(19)-|
B|---------------------|---17-(19)-(19)-(18)-(17)-15---------|
G|---------------------|-------------------------------------|
D|-------------9-9-----|-------------------------------------|
A|-2---4----5--7-7-----|-------------------------------------|
E|-----------------7-7-|-------------------------------------|


  Bm  A/C#  D  E E B B

e|---------------------|------------------------------------------------|
B|---------------------|-------15--------------15--------------15-------|
G|---------------------|-14-16----16-16--14-16----16-16--14-16----16-16-|
D|-------------9-9-----|------------------------------------------------|
A|-2---4----5--7-7-----|------------------------------------------------|
E|-----------------7-7-|------------------------------------------------|

I though you might understand
I'm doing the best that I can
And you said you'd wait for me

Chorus
	  

there isn't a video lesson for this song

request
Full key step upFull key step up
Half key step upHalf key step up
Half key step downHalf key step down
Full key step downFull key step down
Search
auto scroll beats size up size down change color hide chords drawings
tab show chords e-chords YouTube Clip e-chords hide all tabs e-chords go to top tab