Toto

home > Toto

Georgy Porgy Tab

Toto

Difficulty: ExpertExpert

tuner correct add songbook print version text version save to e-mail
chordsukulelecavacokeyboardtabbassdrumsharmonicsflute Guitar Pro
chords

Georgy Porgy

	  Cmaj7                      Bm7                     Em7
It's not your situation, I just need contemplation over you
Cmaj7                  Bm7                          Em7
I'm not so systematic, it's just that I'm an addict for your love

    Cmaj7                              Am  
I'm not the only one that holds you, I never ever should have told you
          B7
You're my only girl
    Cmaj7                              Am
I'm not the only one that holds you, I never ever should have told you
          B7
You're my only world

Cmaj7                               Bm7                         Em7
Just think how long I've known you, it's long for me to own you lock and key
Cmaj7                      Bm7                         Em7
It's really not confusing, I'm just the young illusion can't you see

Chorus

Em7                       E half diminished
Georgy Porgy pudding pie, kissed the girls and made them cry

                             > >
e|--7-7-7--7--7--7--7--7--7-------|
B|--8-8-8--8--8--8--8--8--8--8-8--|
G|--7-7-7--7--7--7--7--7--7--7-7--|
D|--9-9-9--9--9--9--9--9--9--8-8--|
A|--7-7-7--7--7--7--7--7--7--7-7--|
E|--------------------------------|

                              >  >
e|--7-7-7--7--7--7--7--7--7---------|
B|--8-8-8--8--8--8--8--8--8--10-10--|
G|--7-7-7--7--7--7--7--7--7---9--9--|
D|--9-9-9--9--9--9--9--9--9--10-10--|
A|--7-7-7--7--7--7--7--7--7---9--9--|
E|----------------------------------|


Guitar solo: (Cmaj7 Bm7  Em7    x2)
w/ slide
e|---------------------------------------------|
B|--/12--15\12--15\10--12-8--7-5-5-------------|
G|---------------------------------------------|
D|---------------------------------------------|
A|---------------------------------------------|
E|---------------------------------------------|

Two guitars

e|--/10--14\10--14\10--12-7--5/7/10/12/15/17/19-|
B|--/12--15\12--15\10--12-8--3/5/-7/-8/10/12/15-|
G|----------------------------------------------|
D|----------------------------------------------|
A|----------------------------------------------|
E|----------------------------------------------|

It's not your situation, I just need contemplation over    you
I'm not so systematic, it's just that I'm an addict for your love

Chorus

Georgy Porgy pudding pie...
	  

there isn't a video lesson for this song

request
Full key step upFull key step up
Half key step upHalf key step up
Half key step downHalf key step down
Full key step downFull key step down
Search
auto scroll beats size up size down change color hide chords drawings
tab show chords e-chords YouTube Clip e-chords hide all tabs e-chords go to top tab