Toto

home > Toto

Extinction Blues Tab

Toto

Difficulty: ExpertExpert

tuner correct add songbook print version text version save to e-mail
chordsukulelecavacokeyboardtabbassdrumsharmonicsflute Guitar Pro
chords

Extinction Blues

	    |--------------------------------------------------------------------------|
  |--------------------------------------------------------------------------|
  |------------2---4---5-----/9------7----------7---------7---7--5-----------|
  |---2--------2---2---3-----/7------5----------5---------5---5--7-----------|
  |---0--0--0--0---0---0-----/0------0--0--0----0--0--0---0---0--0--0--0-----|
  |--------------------------------------------------------------------------|

  |----------------------------------------------------|
  |----------------------------------------------------|
  |---9--------8--8--------7--5------------------------|
  |---7--------7--7--------7--5---7-5-7----------------|
  |---0--0--0--0--0--0--0--0---------------------0--3--|
  |----------------------------------------0--3--------|
	  

there isn't a video lesson for this song

request
Search
auto scroll beats size up size down change color hide chords drawings
tab show chords e-chords YouTube Clip e-chords hide all tabs e-chords go to top tab