Toto

home > Toto

English Eyes Tab

Toto

Difficulty: ExpertExpert

tuner correct add songbook print version text version save to e-mail
chordsukulelecavacokeyboardtabbassdrumsharmonicsflute Guitar Pro
chords

English Eyes

	  
LICK 1 (play it 4 times)
e-----------------------------------------------------------------------
B-----------------------------------------------------------------------
G-----------------------------------------------------------------------
D-----------------------------------------------------------------------
A---2--2--0--0--------------7--7--5--------------------------------------
E---------------3--3--2--2-----------------------------------------------


LICK 2 (play it 1 time, a little brake and then again, a little brake
and then play it 4 times after eachother)

e-----------------------------------------------------------------------
B---3--2--0-----0-------------------------------------------------------
G------------2-----0--2-------------------------------------------------
D------------------------4--2--0-----------------------------------------
A-----------------------------------------------------------------------
E-----------------------------------------------------------------------

If you got the video you know that this part will come once more.
	  

there isn't a video lesson for this song

request
Search
auto scroll beats size up size down change color hide chords drawings
tab show chords e-chords YouTube Clip e-chords hide all tabs e-chords go to top tab