Toto

home > Toto > chords

Child Anthem Tab

Toto

Difficulty: ExpertExpert

tuner correct add songbook print version text version rtf version e-mail
chordsukulelecavacokeyboardtabbassdrumsharmonicsflute Guitar Pro
chords

Child Anthem

	                  4 times     fade out
                   > >
e|---------------------|-----|
B|--4-4-4-4-4---4------|-----|
G|--5-5-5-5-5---4------|-----|
D|--5-5-5-5-5---4------|--6--|
A|-----------------6-6-|--4--|
E|-----------------4-4-|-----|

Verse:                               b
e|-----------------------------------------------|
B|--5--7--5-7-9--10-9-10-12--10--9--7-(9)-(7)-7--|
G|-----------------------------------------------|
D|-----------------------------------------------|
A|-----------------------------------------------|
E|-----------------------------------------------|


e|-----------------------------------------------|
B|--9--7-9-10--12-10-12-14--15-14-15-17--15--14--|
G|-----------------------------------------------|
D|-----------------------------------------------|
A|-----------------------------------------------|
E|-----------------------------------------------|

      b                          b
e|--------------------------------------------------|
B|--12-(14)-(12)-12--14--12-14-14-(15)-14--12-14-12-|
G|--------------------------------------------------|
D|--------------------------------------------------|
A|--------------------------------------------------|
E|--------------------------------------------------|

          b                b
e|----------------------------------------|
B|--15--14-(15)-(14)-14--13-(14)-(13)-13--|
G|----------------------------------------|
D|----------------------------------------|
A|----------------------------------------|
E|----------------------------------------|

End:            7 times  8th time            fade out
                   > >                    > >
e|---------------------|----------------------|
B|--4-4-4-4-4---4------|---4-4-4-4-4---4------|
G|--5-5-5-5-5---4------|---5-5-5-5-5---4------|
D|--5-5-5-5-5---4------|---5-5-5-5-5---4------|
A|-----------------6-6-|------------------6-9-|
E|-----------------4-4-|------------------4-7-|
	  

Request the video "Child Anthem"  -  Send "Child Anthem" Ringtone to your Cell

there isn't a video lesson for this song

request
Search
auto scroll beats size up size down change color hide chords drawings
tab show chords e-chords YouTube Clip e-chords hide all tabs e-chords go to top tab