The Who

home > The Who > chords

Shakin All Over Tab

The Who

Difficulty: AdvancedAdvanced

tuner correct add songbook print version text version rtf version e-mail
chordsukulelecavacokeyboardtabbassdrumsharmonicsflute Guitar Pro
chords

Shakin All Over

	   
e-3--0-------------------------------------------------------------------- 
b------3--0--------------------------------------------------------------- 
g-----------2--0---------------------------------------------------------- 
d----------------2--0--2p0h2---------------------------------------------- 
a------------------------------------------------------------------------- 
E------------------------------------------------------------------------- 
^main riff ... this is the variated version that The Who play through the song they play it 2 different ways... the way above and the same as the above however without the last phrase with the pulloff and hammer on. 
 
verses (guitar 2) 
P.M ---------------------------------------------------------------------- 
e------------------------------------------------------------------------- 
b------------------------------------------------------------------------- 
g------------------------------------------------------------------------- 
d------2-2--0-0-----------2-2-0-0----------------------------------------- 
a---------------2-2---------------2-2------------------------------------- 
E--0-0----------------0-0------------------------------------------------- 
 
   {-------X2-----------------------}    ^right now guitar 1 plays main riff 
 
end of second time guitar 2 plays verse riff, guitar 1 does Harmonic on whole 13th Fret. 
 
 
now play Am E and A chords with the A being a bar chord (listen to song for timing and changes) 
 
At the end of playing the verse with  the chords, Guitar 1 again does the harmonic 
 
 
Sorry this is all I have so far just repeat everything until solo... still working that out.. I'll get back to you on that. Hope it works for you.....Please Rate! 
 
 

	  

Request the video "Shakin All Over"  -  Send "Shakin All Over" Ringtone to your Cell

there isn't a video lesson for this song

request
Full key step upFull key step up
Half key step upHalf key step up
Half key step downHalf key step down
Full key step downFull key step down
Search
auto scroll beats size up size down change color hide chords drawings
tab show chords e-chords YouTube Clip e-chords hide all tabs e-chords go to top tab