The Ventures

home > The Ventur... > chords

Ghost Riders in the sky Tab

The Ventures

Difficulty: BeginnerBeginner

tuner correct add songbook print version text version rtf version e-mail
chordsukulelecavacokeyboardtabbassdrumsharmonicsflute Guitar Pro
chords

Ghost Riders in the sky

(Stan Jones, 1948)

	    
E|-------------------------------------|  
B|-------------------------------------|  
G|-------------------------------------|  
D|-------------------------------------|  
A|-------------------------------------|  
E|-5-0-5-0-3-5-0-5-0-3-5---------------|  
  
E|------------------------------------|  
B|-10-8-------------------------------|  
G|------9-7-5-------------------------|  
D|------------7-7-5-------------------|  
A|------------------7-5-3-0----------.|  
E|------------------------------------|  
  
E|-------------------------------------------------|  
B|-------------------------------------------------|  
G|-------------------------------------------------|  
D|------------------------------------0-2-33-2-0-22|  
A|---000-2-3-33-0------------000-2-333----------3--|  
E|-3--------------333-0-3---3----------------------|  
  
E|------------------------------------------------|  
B|-----------------------------------------------.|  
G|------2222--------------------------------------|  
D|--222------22-0-0^2-22-0------------------------|  
A|-------------------------3-0------333-333-00---0|  
E|-----------------------------3-1-1------------3-|  
  
------------------REPETE TUDO 1x--------------------  
  
  
  
E|--------------------------------------------|  
B|-555-5^8----------9^10-10-10-10-5-----------|  
G|--------------------------------------------|  
D|----------------------------------5^7-777-2-|  
A|----------222-2^5---------------------------|  
E|--------------------------------------------|  
  
E|----------------------------------------------|  
B|----------------------------------------------|  
G|----------------------------------------------|  
D|-----------------777-9-10-10-10--7-555---5----|  
A|-------3-3-0---7-----------------------7------|  
E|-1-1-1----------------------------------------|  
  
E|----------------------------------------------|  
B|----------------------------------------------|  
G|------------------7-9-10-9-7-5^7-9------------|  
D|---777-9-10-10-10-----------------------------|  
A|-7--------------------------------------------|  
E|----------------------------------------------|  
  
E|----------------------------------------------|  
B|---10-10-10-10--------------------------------|  
G|-99------------99--7^9-99-7-5-7---------------|  
D|--------------------------------7-7-----------|  
A|----------------------------------------------|  
E|----------------------------------------------|  
  
E|-----------------------------------------------|  
B|----------------------------------------------.|  
G|-----------------------------------------------|  
D|---10-10-10-10-10-77-5-7-----------------------|  
A|-88--------------------------------------------|  
E|-----------------------------------------------|  
  
E|-------------------------------------------------|  
B|-----------------------------------------------|  
G|------------------------------------------------|  
D|------------------------------------------------|  
A|------------------------------------5-7-8-7-5-5-|  
E|1^5-55-7-888-5-333-0-3--1^5-55-7-888------------|  
  
E|------------------------------------------------|  
B|------------------------------------------------|  
G|------------------------------------------------|  
D|-----7777---------------------------------------|  
A|-5-7-----77--5-777-3-------------333-33-00--0---|  
E|---------------------5--0-1-1-1-1----------3----|  
  
E|------------------------------------------------|  
B|-555-8-------9^10-10-10-10-5--------------------|  
G|------------------------------------------------|  
D|-------222-5-----------------5^7-777-2----------|  
A|------------------------------------------------|  
E|------------------------------------------------|  
  
E|-----------------------------------------------|  
B|--------------555-8--9^10-10-10-5--------------|  
G|-----------------------------------------------|  
D|-----10-10-7-----------------------------------|  
A|-888-------------------------------------------|  
E|-----------------------------------------------|  
  
E|-----------------------------------------------|  
B|-----------------------------------------------|  
G|-----------------------------------------------|  
D|-----10-10-7-----------------------------------|  
A|-888-------------------------------------------|  
E|-----------------------------------------------|  
	  

Request the video "Ghost Riders in the sky"  -  Send "Ghost Riders in the sky" Ringtone to your Cell

there isn't a video lesson for this song

request
Search
auto scroll beats size up size down change color hide chords drawings
tab show chords e-chords YouTube Clip e-chords hide all tabs e-chords go to top tab