The Speaks

home > The Speaks > chords

High Tab

The Speaks

Difficulty: ExpertExpert

by music_soul22

tuner correct add songbook print version text version rtf version e-mail
chordsukulelecavacokeyboardtabbassdrumsharmonicsflute Guitar Pro
chords

High

	  high - the speaks 
 
intro & verses: 
          D                        A 
E|-2-------2-------------|---------2--0----------| 
B|----3-------3----0-----|--0-2-------------2----| 
G|------2-------2-----2--|------2--------2----2--| 
D|-0-------0-------3-----|-----------------------| 
A|-----------------------|--0------0--------0----| 
E|-----------------------|-----------------------| 
 
          Bm                      G             A                            
E|-----------2--------------|----------------|-------------| 
B|--3-----------3----3------|--3------3------|--2----------| 
G|-----4----------2-----4---|----0------0----|-----2-------| 
D|-------4------------------|------0------0--|-------------| 
A|--2--------2-------2------|----------------|--0----------| 
E|--------------------------|--3------3------|-------------| 
      
          D                        A 
E|-2-------2-------------|---------2--0----------| 
B|----3-------3----0-----|--0-2-------------2----| 
G|------2-------2-----2--|------2--------2----2--| 
D|-0-------0-------3-----|-----------------------| 
A|-----------------------|--0------0--------0----| 
E|-----------------------|-----------------------| 
 
          Bm                      G            A                             
E|-----------2--------------|----------------|-------------| 
B|--3-----------3----3------|--3------3------|--2----------| 
G|-----4----------2-----4---|----0------0----|-----2-------| 
D|-------4------------------|------0------0--|-------------| 
A|--2--------2-------2------|----------------|--0----------| 
E|--------------------------|--3------3------|-------------| 
 
verse 1: 
will it ever be 
i've tried so hard to find sweet serenity 
i am still afraid 
just close your eyes and dream and feel it fade away 
 
 
Chorus: 
D          A		    Bm 
time won't flow everyone knows 
            G - A 
When the pain fades away 
D           A		        Bm 
dreams wont die, tears in our eyes 
              G  -    A       
you got to hold your head up  
 
Guitar 1:(D-A-Bm-G-A)                            
Guitar 2: 
               D                                      A 
E|---------12--10-10--9-10p9-----|---------12--10-10-9-10p9------| 
B|--10--10-------------------10--|--10-10-------------------10---| 
G|-------------------------------|-------------------------------| 
D|-------------------------------|-------------------------------| 
A|-------------------------------|-------------------------------| 
E|-------------------------------|-------------------------------| 
   high.............................igh......................... 
 
          Bm                       G            A 
E|-----------10-9-----10-10-9-10p9-------12-12-14-14------------| 
B|-12--12---------10----------------10--------------------------| 
G|--------------------------------------------------------------| 
D|--------------------------------------------------------------| 
A|--------------------------------------------------------------| 
E|--------------------------------------------------------------| 
   yeah..............yeay.........hold your head up high........ 
      
verse 2: (same plucking as in 1st verse) 
it's taken some time 
and I've given up the will to change your state of mind 
just try and understand 
it's not so hard to see that I am just a man 
 
Chorus: 
D          A		    Bm 
time won't flow everyone knows 
            G - A 
When the pain fades away 
D           A		        Bm 
dreams wont die, tears in our eyes 
              G  -    A       
you got to hold your head up 
 
Guitar 1:(D-A-Bm-G-A) 
Guitar 2: Lead part 
               D                                      A 
E|---------12--10-10--9-10p9-----|---------12--10-10-9-10p9------| 
B|--10--10-------------------10--|--10-10-------------------10---| 
G|-------------------------------|-------------------------------| 
D|-------------------------------|-------------------------------| 
A|-------------------------------|-------------------------------| 
E|-------------------------------|-------------------------------| 
   high.............................igh......................... 
    
          Bm                       G            A 
E|-----------10-9-----10-10-9-10p9-------12-12-14-14-----------| 
B|-12--12---------10----------------10-------------------------| 
G|-------------------------------------------------------------| 
D|-------------------------------------------------------------| 
A|-------------------------------------------------------------| 
E|-------------------------------------------------------------| 
   yeah..............yeay.........hold your head up high........ 
 
 
solo: (not sure w/ the accuracy of this one) 
e--------------------------------------------------------------| 
b--------------------------------------------------------------| 
g-5-7-7/9-7-5-5/7-5-4/5-5p4-2-------------4-5-5/7-5-4-5--------| 
d-----------------------------7-5-4-4h5-7----------------------| 
a--------------------------------------------------------------| 
e--------------------------------------------------------------| 
 
e-------------------------------------------------8-7-8--------| 
b-------------6/8-6-5-6-5-3-----5-6-------5-6-6/8--------------| 
g-5-7-7/9-7-5---------------5h7-----5-5h7----------------------| 
d--------------------------------------------------------------| 
a--------------------------------------------------------------| 
e--------------------------------------------------------------| 
 
(repeat the whole 1st verse here) 
 
Chorus: 
D          A		    Bm 
time won't flow everyone knows 
            G - A 
When the pain fades away 
D           A		        Bm 
dreams wont die, tears in our eyes 
              G  -    A       
you got to hold your hand up 
 
Guitar 1:(D-A-Bm-G-A)                            
Guitar 2: 
               D                                      A 
E|---------12--10-10--9-10p9-----|---------12--10-10-9-10p9------| 
B|--10--10-------------------10--|--10-10-------------------10---| 
G|-------------------------------|-------------------------------| 
D|-------------------------------|-------------------------------| 
A|-------------------------------|-------------------------------| 
E|-------------------------------|-------------------------------| 
    high.............................igh......................... 
 
          Bm                       G            A 
E|-----------10-9-----10-10-9-10p9-------12-12-14-14-------------| 
B|-12--12---------10----------------10---------------------------| 
G|---------------------------------------------------------------| 
D|---------------------------------------------------------------| 
A|---------------------------------------------------------------| 
E|---------------------------------------------------------------| 
    yeah..............yeay.........hold your hand up high........ 
 
 
this song is for GOD and all ENCM lipa members! keep the fire burning! 
also for my family and friends. . . thanks for everything guys. . . 
you rock! üüü 

	  

Request the video "High"  -  Send "High" Ringtone to your Cell

there isn't a video lesson for this song

request
Full key step upFull key step up
Half key step upHalf key step up
Half key step downHalf key step down
Full key step downFull key step down
e-chords
Search
auto scroll beats size up size down change color hide chords drawings
tab show chords e-chords YouTube Clip e-chords hide all tabs e-chords go to top tab