The Servant

home > The Servan... > chords

Cells ( Tema Sin City ) Tab

The Servant

Difficulty: AdvancedAdvanced

by betoavb

tuner correct add songbook print version text version rtf version e-mail
chordsukulelecavacokeyboardtabbassdrumsharmonicsflute Guitar Pro
chords

Cells ( Tema Sin City )

	  Verse 1 (Clean,Listen for Strumming) 
==================================== 
1------------------------------------------------| 
2---1--1-----1-----------------------------------| 
3---2--2--1--2-----------------------------------| 
4---2--3--2--2-----------------------------------| 
5---------2--------------------------------------| 
6------------------------------------------------|  x6 
Verse 2 (Distortion + Wah) 
========================== 
1------------------------------------------------| 
2-------1--1-----1-------------------------------| 
3--*2---2--2--1--2-------------------------------| 
4---2---2--3--2--2-------------------------------| 
5-------------2----------------------------------| 
6------------------------------------------------| x 2 
Chorus (Distortion) 
=================== 
1------------------------------------------------| 
2--------------------------5---------------------| 
3-------5--------5~------7---5------5/7----------| 
4---5-7---7--5-7-----7-5--------5-7-----7--------| 
5------------------------------------------------| 
6------------------------------------------------| 
 
1------------------------------------------------| 
2-------4/5-5------------------------------------| 
3---5-7-------7-5-7---5--------5-----------------| 
4-------------------7------5-7---7---------------| 
5------------------------------------------------| 
6------------------------------------------------| 
 
1------------------------------------------------| 
2-------5-6-8------/13-13-10~/12-6-6-5-----------| 
3--s5-7-------5s-----------------------5---------| 
4------------------------------------------------| 
5------------------------------------------------| 
6------------------------------------------------| x2 
 
Verse 3 (Clean,Listen for Strumming) 
==================================== 
1------------------------------------------------| 
2---1--1-----1-----------------------------------| 
3---2--2--1--2-----------------------------------| 
4---2--3--2--2-----------------------------------| 
5---------2--------------------------------------| 
6------------------------------------------------| x6 
 
Verse 4 (Distortion + Wah) 
========================== 
1------------------------------------------------| 
2-------1--1-----1-------------------------------| 
3--*2---2--2--1--2-------------------------------| 
4---2---2--3--2--2-------------------------------| 
5-------------2----------------------------------| 
6------------------------------------------------| x 2 
 
 
Fill 1 (Distortion + Wah) 
========================= 
1------------------------------------------------| 
2------------------------------------------------| 
3------------------------------------------------| 
4------------------------------------------------| 
5------------------------------------------------| 
6---5-5-6-6-7-7-8-8-7-6--------------------------| 
 
Chorus (Distortion) 
=================== 
1------------------------------------------------| 
2--------------------------5---------------------| 
3-------5--------5~------7---5------5/7----------| 
4---5-7---7--5-7-----7-5--------5-7-----7--------| 
5------------------------------------------------| 
6------------------------------------------------| 
 
1------------------------------------------------| 
2-------4/5-5------------------------------------| 
3---5-7-------7-5-7---5--------5-----------------| 
4-------------------7------5-7---7---------------| 
5------------------------------------------------| 
6------------------------------------------------| 
 
1------------------------------------------------| 
2-------5-6-8------/13-13-10~/12-6-6-5-----------| 
3--s5-7-------5s-----------------------5---------| 
4------------------------------------------------| 
5------------------------------------------------| 
6------------------------------------------------|x3 
 
Fill 2 (Distortion) 
=================== 
1------------------------------------------------| 
2--------------------------5---------------------| 
3-------5--------5~------7---5-------------------| 
4---5-7---7--5-7-----7-5-------------------------| 
5------------------------------------------------| 
6------------------------------------------------| 
 
Chorus (Distortion) 
=================== 
1------------------------------------------------| 
2--------------------------5---------------------| 
3-------5--------5~------7---5------5/7----------| 
4---5-7---7--5-7-----7-5--------5-7-----7--------| 
5------------------------------------------------| 
6------------------------------------------------| 
 
1------------------------------------------------| 
2-------4/5-5------------------------------------| 
3---5-7-------7-5-7---5--------5-----------------| 
4-------------------7------5-7---7---------------| 
5------------------------------------------------| 
6------------------------------------------------| 
 
1------------------------------------------------| 
2-------5-6-8------/13-13-10~/12-6-6-5-----------| 
3--s5-7-------5s-----------------------5---------| 
4------------------------------------------------| 
5------------------------------------------------| 
6------------------------------------------------|x4 
 
Ending (Distortion + Wah) 
========================= 
1---/15 15-15-15--15-15-15--15-15-15-------------| 
2-------------------------------------13---------| 
3------------------------------------------------| 
4------------------------------------------------| 
5------------------------------------------------| 
6------------------------------------------------| 

	  

Request the video "Cells ( Tema Sin City )"  -  Send "Cells ( Tema Sin City )" Ringtone to your Cell

there isn't a video lesson for this song

request
e-chords
Search
auto scroll beats size up size down change color hide chords drawings
tab show chords e-chords YouTube Clip e-chords hide all tabs e-chords go to top tab