The Raconteurs

home > The Racont... > chords

Steady As She Goes Tab

The Raconteurs

Difficulty: BeginnerBeginner

by nosferatu1208

tuner correct add songbook print version text version rtf version e-mail
chordsukulelecavacokeyboardtabbassdrumsharmonicsflute Guitar Pro
chords

Steady As She Goes

	  Key: 
~ Vibrato 
/ Slide 
X Scrach strings 
 
intro: 
e----------------------------------------------|I 
b----------------------------------------------|I 
g---7~~7~~6~~4~~--------7~~7~~6~~4~~-----------|I 
d----------------------------------------------|I 
a----------------------------------------------|I 
E----------------------------------------------|I 
 
Verse 
e---------------------------------------------------|I 
b---------------------------------------------------|I 
g--4-----2-----4-----2-------4-----2-----4-----2----|I 
d--4--4--2--2--4--4--2--2----4x4---2x2---4x4---2x2--|I 
a--2--4--0--2--2--4--0--2----2x4---0x2---2x4---0x2--|I 
E-----2-----0-----2-----0-----x2----x0----x2----x0--|I 
  slow timing with beat        Picks up into rest of song 
                               with scraches inbetween chords 
 
Chorus 
e----------------------------------------------------------------|I 
b----------------------------------------------------------------|I 
g--444---222---444---222-----------------------------------------|I 
d--444444222222444444222222--55555555/77777777/9999999999999999--|I 
a--222444000222222444000222--55555555/77777777/9999999999999999--|I 
E-----222---000---222---000--33333333/55555555/7777777777777777--|I 

	  

Request the video "Steady As She Goes"  -  Send "Steady As She Goes" Ringtone to your Cell

there isn't a video lesson for this song

request
Search
auto scroll beats size up size down change color hide chords drawings
tab show chords e-chords YouTube Clip e-chords hide all tabs e-chords go to top tab