The Pink Panther

home > The Pink P... > chords

Pantera cor de rosa Tab

The Pink Panther

Difficulty: BeginnerBeginner

by Rogerio seni

tuner correct add songbook print version text version rtf version e-mail
chordsukulelecavacokeyboardtabbassdrumsharmonicsflute Guitar Pro
chords

Pantera cor de rosa

	  E--------------------------------------------------------------- 
B--------------------------------------------------------------- 
G--------------------------------------------------------------- 
D--------------------------------------------------------------- 
A-------------------------5-4-----4-3-----1------------------------------ 
E-0-1-2-3---5-6--2-3--5-6-----2-3----------3-1-3------------------------- 
 
E------------------------------------------------------- 
B------------------------------------------------------- 
G------------------------------------------------------- 
D------------------------------------------------------- 
A-------------------------5-4-----4-3-----3-3-5b---------------- 
E-0-1-2-3---5-6--2-3--5-6-----2-3----------------0-1-2-3---------------- 

	  

Request the video "Pantera cor de rosa"  -  Send "Pantera cor de rosa" Ringtone to your Cell

there isn't a video lesson for this song

request
Search
auto scroll beats size up size down change color hide chords drawings
tab show chords e-chords YouTube Clip e-chords hide all tabs e-chords go to top tab