The Offspring

home > The Offspr... > chords

Can't Repeat Tab

The Offspring

Difficulty: AdvancedAdvanced

by Caiocs

tuner correct add songbook print version text version rtf version e-mail
chordsukulelecavacokeyboardtabbassdrumsharmonicsflute Guitar Pro
chords

Can't Repeat

Year: 2005 - Album: The Offspring - Greatest Hits

	   ________________________________________ 
|Legenda:                                | 
| * = palm mute                          | 
| ~ = deixa tocar por um tempo           | 
|________________________________________| 
 
 
 
No comecinho eh assim (pelo menos parece pra mim...) 
e-------------------------------------------------------| 
B-------------------------------------------------------| 
G-------------------------------------------------------| 
D----7~~------------------------------------------------| 
A----0~~------------------------------------------------|  
E-------------------------------------------------------| 
 
 
 
Essa parte da intru}odução tem uns efeitos... 
e-------------------------------------------------------| 
B-------------------------------------------------------| 
G-------------------------------------------------------| 
D----77-7-----------------------------------------------| 
A----77-7-(x16)-----------------------------------------|  
E----55-5-----------------------------------------------| 
     **           
 
 
Pre-verse riff 
 
                                                          _ 
e-------------------------------------------------------|  | 
B-------------------------------------------------------|  | 
G---14--12-12--9-9--7-7-9---14--12-12--9-9--7-7-9-------|  | 
D----x---x--x--x-x--x-x-x----x---x--x--x-x--x-x-x-------|  | 
A---12--10-10--7-7--5-5-7---12--10-10--7-7--5-5-7-------|  |   
E-------------------------------------------------------|  |-> x2 
                                                           |      
e-------------------------------------------------------|  | 
B-------------------------------------------------------|  | 
G---17-16-14-12-14--17-16-14-12-14-(12)-(14)------------|  | 
D----x--x--x--x--x---x--x--x--x--x--(x)--(x)------------|  | 
A---15-14-12-10-12--15-14-12-10-12-(10)-(12)------------|  | 
E-------------------------------------------------------| _| 
(entre parenteses = soh toca na segunda vez)              
 
 
 
 
 
Verso 
 
Duas vezes o verso 
e-------------------------------------------------------| 
B-------------------------------------------------------| 
G----------------55-5-----------------------------------|  
D----77-7--------55-5-(x4)---33-3--------55-5-----------| 
A----77-7-(x4)---33-3--------33-3-(x4)---55-5-(x4)------|  
E----55-5--------------------11-1--------33-3-----------| 
     **          **          **          ** 
 
 
 
 
Chorus 
 
Played twice through each Chorus. 
e-------------------------------------------------------| 
B-------------------------------------------------------| 
G--------------------55555-55-5555----------------------| 
D----77777-77-7777---55555-55-5555--33333-33-3333-------| 
A----77777-77-7777---33333-33-3333--33333-33-3333-------|  
E----55555-55-5555------------------11111-11-1111-------| 
 
 
e-------------------------------------------------------| 
B-------------------------------------------------------| 
G-------------------------------------------------------| 
D----55555-55-5555--------------------------------------| 
A----55555-55-5555--------------------------------------|  
E----33333-33-3333--------------------------------------| 
 
 
 
Bridge 
 
e-------------------------------------------------------| 
B-------------------------------------------------------| 
G-------------------------------------------------------| 
D---77-7------------------------------------------------| 
A---77-7-(x16)------------------------------------------|  
E---55-5------------------------------------------------| 
    ** 
(antes do baixo começar) 
 
 
 
Depois do baixo começa essa parte 
e-------------------------------------------------------| 
B-------------------------------------------------------| 
G--------55-----------------5---------------------------| 
D---77---55---33-3-3-3-5----5--5------------------------| 
A---77---33---33-3-3-3-5----3--5------------------------|  
E---55--------11-1-1-1-3-------3------------------------| 
 
 
 
Outro 
 
e-------------------------------------------------------| 
B-------------------------------------------------------| 
G--2--4--5-7-9-12-17-16-17-16-14-12-14------------------| 
D--x--x--x-x-x--x--x--x--x--x--x--x--x------------------| 
A--0--6--4-5-7-12-15-14-16-14-12-10-12------------------|  
E-------------------------------------------------------| 
 
 
e-------------------------------------------------------| 
B-------------------------------------------------------| 
G-------------------------------------------------------| 
D---77-7-(7)--------------------------------------------| 
A---77-7-(7)--------------------------------------------|  
E---55-5-(5)--------------------------------------------| 
    ** 
(entre parenteses soh na ultima vez) 
 
 
Tab feita por: 
  ___     _______   _____    ____                
 /   \       |     /        /                    
|  ____      |    |         \___ 
|    | |     |    |             \ 
 \___| |     |     \_____   ____/ PIDER ®  
 
 

	  

Request the video "Can't Repeat"  -  Send "Can't Repeat" Ringtone to your Cell

there isn't a video lesson for this song

request
Search
auto scroll beats size up size down change color hide chords drawings
tab show chords e-chords YouTube Clip e-chords hide all tabs e-chords go to top tab