The Mavericks

home > The Maveri... > chords

All You Ever Do is Bring Me Down Tab

The Mavericks

Difficulty: AdvancedAdvanced

tuner correct add songbook print version text version rtf version e-mail
chordsukulelecavacokeyboardtabbassdrumsharmonicsflute Guitar Pro
chords

All You Ever Do is Bring Me Down

	   
-------------------------------------------------------- 
-------------------------------------------------------- 
-------------------------------------------------------- 
-------------------------------------------------------- 
--------------2-4-2---------------------2-4-2----------- 
------0-0--4-----------4-2------0-0--4-----------4-2---- 
 
 
--------------------------------------------------------- 
--------------------------------------------------------- 
--------------------------------------------------------- 
--------------2-4-2---------------------2-4-2------------ 
------0-0--4-----------4-2------0-0--4-----------4-2----- 
--------------------------------------------------------- 
 
 
  it play's like that during all the song. 
	  

Request the video "All You Ever Do is Bring Me Down"  -  Send "All You Ever Do is Bring Me Down" Ringtone to your Cell

there isn't a video lesson for this song

request
Search
auto scroll beats size up size down change color hide chords drawings
tab show chords e-chords YouTube Clip e-chords hide all tabs e-chords go to top tab