The Eagles

home > The Eagles > chords

Hotel california solo Tab

The Eagles

Difficulty: ExpertExpert

by afro302

tuner correct add songbook print version text version rtf version e-mail
chordsukulelecavacokeyboardtabbassdrumsharmonicsflute Guitar Pro
chords

Hotel california solo

	  SOLO: (4:20) 
E-------------------------------------------------------------------- 
B---------10h12^^---10-12--------7----------------------------------- 
G--10/11------------------9--7-9---7--------------------------------- 
D------------------------------------8--9h11p9p7^-------------------- 
A-------------------------------------------------------------------- 
E-------------------------------------------------------------------- 

(4:28) 
E--------------------------------------10----------------7-----10^^-- 
B-----7--------------7-------------10^----10^r-7-10-8^-----7--------- 
G-7-9---7--------7-9---7--------------------------------------------- 
D---------9-7-9----------9-7-9--7------------------------------------ 
A-------------------------------------------------------------------- 
E-------------------------------------------------------------------- 

(4:35) 
E-10--10^r-7-----10------------------10------------------------------ 
B------------10^----10^r---8----------------------------------------- 
G-----------------------------x-x-9^----9^r---7---7p6--7------------- 
D-------------------------------------------------------------------- 
A-------------------------------------------------------------------- 
E-------------------------------------------------------------------- 

(4:41) 
E---------------------------------------------------7---------------- 
B------7^--7^r---------7^-7^--7^r---------7-10----7------------------ 
G-7h9-----------9-7-9--------------9-7-9^------9^------9^-9p7--9^---- 
D-------------------------------------------------------------------- 
A-------------------------------------------------------------------- 
E-------------------------------------------------------------------- 

(4:47) 
E--------------7----7-7----------------------------------------------- 
B----7-10----7------7-7-----7-7--------------------------------------- 
G-9^------9^-----9^------9^-----9^rp7-9---7----9^-///////------------- 
D--------------------------------------------------------------------- 
A--------------------------------------------------------------------- 
E--------------------------------------------------------------------- 

(4:54) 
E-----------------------7----------10-------------------------------- 
B--------7----------10^---10-7-10^----10-12-11--10-9~---------------- 
G-11^--9---7-----------------------------------------------------14^- 
D-------------9--7--------------------------------------------------- 
A-------------------------------------------------------------------- 
E-------------------------------------------------------------------- 

(5:01) 
E-------------------17--------------------15-16-17-19------------------ 
B-12--15--17-15-17^----17^r--15-17-15-17^-------------17^-17^r-15--17-- 
G---------------------------------------------------------------------- 
D---------------------------------------------------------------------- 
A---------------------------------------------------------------------- 
E---------------------------------------------------------------------- 

(5:07) 
E------------17-17--------------------14-----17-17-------------------17^- 
B-17p15--17^-------17^r--17^~--17r-15----17^-------17^r-17^~-17^r-15----- 
G------------------------------------------------------------------------ 
D------------------------------------------------------------------------ 
A------------------------------------------------------------------------ 
E------------------------------------------------------------------------ 

(5:15) 
E-----10-----10------------------------------------------------------ 
B-12^----12^-------------------11------------------------------------ 
G----------------10p9p7---------------------------------------------- 
D------------------------9--8---------------------------------------- 
A-------------------------------------------------------------------- 
E-------------------------------------------------------------------- 

(5:20) 
E-12^^--12^-12^-12^-12^-12^-12^-12^-12^-12-12p10----12-10------------ 
B------------------------------------------------12-------12--------- 
G-------------------------------------------------------------------- 
D-------------------------------------------------------------------- 
A-------------------------------------------------------------------- 
E-------------------------------------------------------------------- 







5:24) 
E-------------------------------------------------------------------- 
B-10------------10-------8------------------------------------------- 
G----9^r-7--9^-------9^---------------------------------------------- 
D-------------------------------------------------------------------- 
A-------------------------------------------------------------------- 
E-------------------------------------------------------------------- 

(5:26) 
E-10----9---7---------------------------14----12-10------------------ 
B----10---8------10---8--------------------10------------------7---8- 
G-------------11----9-----7-----------7-------------12^r--11--------- 
D-----------------------7---7\5-4-5/7-------------------------------- 
A-------------------------------------------------------------------- 
E-------------------------------------------------------------------- 

(5:34) 
E---------------------9-----10-----12-------------------------------- 
B-8--10----12---11--------------------------------------------------- 
G-------------------------------------------------------------------- 
D-------------------------------------------------------------------- 
A-------------------------------------------------------------------- 
E-------------------------------------------------------------------- 


Riff 1:  (5:39) 
E-14-------14-------14-------14-------14----------------------------- 
B----15-------15-------15-------15-------15-------------------------- 
G-------16-------16-------16-------16-------16----------------------- 
D-------------------------------------------------------------------- 
A-------------------------------------------------------------------- 
E-------------------------------------------------------------------- 

E---------------------------------18--------------------------------- 
B--17--14-----17--14-----17--14-------------------------------------- 
G---------15---------15---------------------------------------------- 
D-------------------------------------------------------------------- 
A-------------------------------------------------------------------- 
E-------------------------------------------------------------------- 

E-12-------12-------12-------12-------12-------12-------12-------12----16- 
B----14-------14-------14-------14-------14-------12-------12-------12---- 
G-------14-------14-------14-------14-------14-------13-------13---------- 
D------------------------------------------------------------------------- 
A------------------------------------------------------------------------- 
E------------------------------------------------------------------------- 

E-10-------10-------10-------10-------10-------10-------10-------10----14- 
B----12-------12-------12-------12-------12-------10-------10-------10---- 
G-------12-------12-------12-------12-------12-------11-------11---------- 
D------------------------------------------------------------------------- 
A------------------------------------------------------------------------- 
E------------------------------------------------------------------------- 

E-12-------12-------12-------12-------12-------11-------11-------------14- 
B----12-------12-------12-------12-------12-------11-------11----11------- 
G-------14-------14-------14-------14-------14-------11-------11----11---- 
D------------------------------------------------------------------------- 
A------------------------------------------------------------------------- 
E------------------------------------------------------------------------- 



                                     By.Jesus Arman Soberanez Franco 


	  

Request the video "Hotel california solo"  -  Send "Hotel california solo" Ringtone to your Cell

hotel-california-solo-by-the-eagles Play

there is a video lesson for this song

watch now

e-chords
Search
auto scroll beats size up size down change color hide chords drawings
tab show chords e-chords YouTube Clip e-chords hide all tabs e-chords go to top tab