The Doors

home > The Doors

Run With Me Tab

The Doors

Difficulty: nolevelnolevel

tuner correct add songbook print version text version rtf version e-mail
chordsukulelecavacokeyboardtabbassdrumsharmonicsflute Guitar Pro

Run With Me

	   Bass Line 
E |--------------| 
A |--0--0--1--1--| 
D |-0--0--0--0---| 
G |--------------| 
Guitar (Low Distortion) 
e |-------------------| 
b |-------------------| 
g |-------------------| 
d |-------0-7b8-------| 
a |-0-5b6-------------| 
e |-------------------| 
Chorus (Blues Distortion) 
e |-3-3-3----------------------------------| 
b |-3-3-3----------------------------------| 
g |-3-3-3---12-12-12-11-11-11-9-9-9-8 8----| 
d |-5-5-5----------------------------------| 
a |-5-5-5----------------------------------| 
e |-3-3-3----------------------------------| 


Request the video "Run With Me"  -  Send "Run With Me" Ringtone to your Cell

there isn't a video lesson for this song

auto scroll beats size up size down change color hide chords drawings
tab show chords e-chords YouTube Clip e-chords hide all tabs e-chords go to top tab