The Doors

home > The Doors > chords

Love me 2 times Tab

The Doors

Difficulty: ExpertExpert

tuner correct add songbook print version text version rtf version e-mail
chordsukulelecavacokeyboardtabbassdrummharmonicsflute Guitar Pro
chords

Love me 2 times

	   
Introdução: 
 
 
  E7 
e|----------------------------------------- 
B|----------------------------------------- 
G|-------------------0h1~~----0h1~~-------- 
D|---0---2---0-2--------------------------- 
A|-2---2---2------------------------------- 
E|---------------0-0------0-0-------------- 
                                   (repete 4 vezes) 
   
e|----------------------------------------- 
B|----------------------------------------- 
G|-------------------0h1~~----0h1~~-------- 
D|---0---2---0-2--------------------------- 
A|-2---2---2------------------------------- 
E|---------------0-0------0-0-------------- 
   Love me two times baby 
   
e|----------------------------------------- 
B|----------------------------------------- 
G|-------------------0h1~~----0h1~~-------- 
D|---0---2---0-2--------------------------- 
A|-2---2---2------------------------------- 
E|---------------0-0------0-0-------------- 
   Love me twice today 
                         
                     A7 
e|-----------------------3--5-----3-- 
B|-----------------------------3----- 
G|----------------------------------- 
D|---0---2---0-2--------------------- 
A|-2---2---2------------------------- 
E|---------------0------------------- 
   Love me two times girl 
 
            E7 
e|----------------------------------------- 
B|----------------------------------------- 
G|-------------------0h1~~----0h1~~-------- 
D|---0---2---0-2--------------------------- 
A|-2---2---2------------------------------- 
E|---------------0-0------0-0-------------- 
   I'm goin' away 
 
                     
                     D7                        
e|------------------------------------------------- 
B|----------------------------5--3b----5---3b-----5-- 
G|-------------------------4/5------5-2-------5-2--2- 
D|---0---2---0-2----------------------------------- 
A|-2---2---2--------------------------------------- 
E|---------------0---------------------------------- 
   Love me two times girl          One for tomorrow, one just 
 
e|--------x-x-x-x-x-x--- 
B|--------1-1-1-1-1-1--- 
G|--------3-3-3-3-3-3--- 
D|--------2-2-2-2-2-2--- 
A|--------3-3-3-3-3-3--- 
E|--------0-0-0-0-0-0--- 
for today 
 
   G       D        C7    B7              
e|-3-------2---------x-----2--- 
B|-3-------3---------1-----4--- 
G|-0-------2---------3-----2--- 
D|-0-------0---------2-----4--- 
A|-2-------0---------3-----2--- 
E|-3-------x---------0-----2--- 
   love me two times.. I?m goin? away 
 
  E7 
e|---------------------------------- 
B|---------------------------------- 
G|-------------------0h1~~-----0h1-- 
D|---0---2---0-2-----------0-------- 
A|-2---2---2-----------------2------ 
E|---------------0-0---------------- 
                                    (repete 2 vezes) 
 
e|---------------------------------- 
B|---------------------------------- 
G|-------------------0h1~~-----0h1-- 
D|---0---2---0-2-----------0-------- 
A|-2---2---2-----------------2------ 
E|---------------0-0---------------- 
   Love me one time 
                 
e|---------------------------------- 
B|---------------------------------- 
G|-------------------0h1~~-----0h1-- 
D|---0---2---0-2-----------0-------- 
A|-2---2---2-----------------2------ 
E|---------------0-0---------------- 
           Could not speak 
                      
                       
                     A7 
e|-----------------------3--5-----3br-- 
B|-----------------------------3------- 
G|------------------------------------- 
D|---0---2---0-2----------------------- 
A|-2---2---2--------------------------- 
E|---------------0--------------------- 
   Love me one time 
 
                      E7   
e|---------------------------------- 
B|---------------------------------- 
G|-------------------0h1~~-----0h1-- 
D|---0---2---0-2-----------0-------- 
A|-2---2---2-----------------2------ 
E|---------------0-0---------------- 
   Yeah, my knees got weak 
                        
                     D7 
e|------------------------------------------------- 
B|-----------------------------5----3b----5---5-33br- 
G|-------------------------4/5--------5-2-------- 
D|---0---2---0-2----------------------------------- 
A|-2---2---2--------------------------------------- 
E|---------------0---------------------------------- 
   Love me two times girl           Last me all through  
 
         C7 
e|--------x-x-x-x-x-x--- 
B|--------1-1-1-1-1-1--- 
G|--------3-3-3-3-3-3--- 
D|--------2-2-2-2-2-2--- 
A|--------3-3-3-3-3-3--- 
E|--------0-0-0-0-0-0--- 
the week 
                                  
   G       D        C7    B7              
e|-3-------2---------x-----2--- 
B|-3-------3---------1-----4--- 
G|-0-------2---------3-----2--- 
D|-0-------0---------2-----4--- 
A|-2-------0---------3-----2--- 
E|-3-------x---------0-----2--- 
   Love me two times.. I'm goin'.. 
 
         C7 
e|--------x-x-x-x-x-x-x-x-x-x-x- 
B|--------1-1-1-1-1-1-1-1-1-1-1-- 
G|--------3-3-3-3-3-3-3-3-3-3-3-- 
D|--------2-2-2-2-2-2-2-2-2-2-2-- 
A|--------3-3-3-3-3-3-3-3-3-3-3-- 
E|--------0-0-0-0-0-0-0-0-0-0-0-- 
  ..away 
   G       D        C7    B7              
e|-3-------2---------x-----2--- 
B|-3-------3---------1-----4--- 
G|-0-------2---------3-----2--- 
D|-0-------0---------2-----4--- 
A|-2-------0---------3-----2--- 
E|-3-------x---------0-----2--- 
   Love me two times.. I'm goin'.. 
 
       E7 
e|---------------------------------- 
B|---------------------------------- 
G|---------------------------------- 
D|--------0---2---0-2-----2-2----22- 
A|------2---2---2-----x-x-----x-x--- 
E|---------------------------------- 
..awaay                   all right yeahh!!!                                                                    
 
* SOLO DE TECLADO HARPCHORD (durante o solo, acompanhe o 
 teclado com estas bases): 
 
e|---------------------------------- 
B|---------------------------------- 
G|---------------------------------- 
D|-----0---2---0-2-----2-2----22---- 
A|---2---2---2-----x-x-----x-x------ 
E|---------------------------------- 
                                    
                               A7 
e|--------------------------------3--5-----3-----3-5- 
B|--------------------------------------3------3----- 
G|----------------------------------------------- 
D|---0---2---0-2-----2-2-----2-2------------- 
A|-2---2---2-----x-x-----x-x---------------- 
E|------------------------------------- 
  E7                              G    D   C7   B7 
e|--------------------------------3----2----x----2-- 
B|--------------------------------3----3----1----4-- 
G|--------------------------------0----2----3----2-- 
D|-----2-2-----2-2-----0---2---0--0----0----2----4-- 
A|-x-x-----x-x-------2---2---2----2----0----3----2-- 
E|--------------------------------3----x----0----2-- 
 
   C7                       G    D   C7   B7 
e|--x-x-x-x-x-x-x-x-x-x-x---3----2----x----2--- 
B|--1-1-1-1-1-1-1-1-1-1-1---3----3----1----4--- 
G|--3-3-3-3-3-3-3-3-3-3-3---0----2----3----2--- 
D|--2-2-2-2-2-2-2-2-2-2-2---0----0----2----4--- 
A|--3-3-3-3-3-3-3-3-3-3-3---2----0----3----2--- 
E|--0-0-0-0-0-0-0-0-0-0-0---3----x----0----2--- 
 
 
e|------------------------------ 
B|------------------------------ 
G|------------------------------ 
D|---0---2---0-2-----0h2~~0--2-- 
A|-2---2---2---------------2---- 
E|---------------0-0------------ 
                               (repete 2 vezes) 
 
e|------------------------------ 
B|------------------------------ 
G|------------------------------ 
D|---0---2---0-2-----0h2~~0--2-- 
A|-2---2---2---------------2---- 
E|---------------0-0------------ 
   Love me one time 
 
e|------------------------------ 
B|------------------------------ 
G|------------------------------ 
D|---0---2---0-2-----0h2~~0--2-- 
A|-2---2---2---------------2---- 
E|---------------0-0------------ 
           Could not speak 
 
e|-------------------3-5---3br- 
B|-----------------------3----- 
G|----------------------------- 
D|---0---2---0-2--------------- 
A|-2---2---2------------------- 
E|---------------0------------- 
   Love me one time 
 
e|------------------------------ 
B|------------------------------ 
G|------------------------------ 
D|---0---2---0-2-----0h2~~0--2-- 
A|-2---2---2---------------2---- 
E|---------------0-0------------ 
   Yeah, my knees got weak 
 
e|---------------------------------------- 
B|---------------------------5--3b---5-3br31- 
G|----------------------0?4/5-----5-2-------- 
D|---0---2---0-2-------------------------- 
A|-2---2---2------------------------------ 
E|---------------0------------------------ 
   Love me two times girl      Last me all through 
 
 
 
 
         C7 
e|--------x-x-x-x-x-x--- 
B|--------1-1-1-1-1-1--- 
G|--------3-3-3-3-3-3--- 
D|--------2-2-2-2-2-2--- 
A|--------3-3-3-3-3-3--- 
E|--------0-0-0-0-0-0--- 
the week 
                                  
   G       D        C7    B7              
e|-3-------2---------x-----2--- 
B|-3-------3---------1-----4--- 
G|-0-------2---------3-----2--- 
D|-0-------0---------2-----4--- 
A|-2-------0---------3-----2--- 
E|-3-------x---------0-----2--- 
   Love me two times.. I'm goin'.. 
 
       E7 
e|-------------------------------------------------- 
B|-------------------------------------------------- 
G|-------------------------------------------------- 
D|------2-2-----2-2-----0---2---0-2-----2-2-----2-2- 
A|----2-----x-x------2---2---2-----x-x-----x-x----- 
E|-------------------------------------------------- 
..away               Love me two times baby 
 
e|------------------------------- 
B|-----------------------3------- 
G|-------------------2/4---4-2--- 
D|---0---2---0-2---4-----------4- 
A|-2---2---2--------------------- 
E|--------------0---------------- 
   Love me twice today 
 
                         A7 
e|------------------------3-5--3---3-5-- 
B|----------------------------3---3----- 
G|-------------------------------------- 
D|---0---2---0-2------------------------ 
A|-2---2---2---------------------------- 
E|--------------0----------------------- 
   Love me two times, baby        Cos? I?m goin?..  
 
     E7 
e|-------------------------- 
B|-------------2-2-2-2-2-2-- 
G|----------2/4------------- 
D|-----2-2------------------ 
A|----2--------------------- 
E|-------------------------- 
..away                  Love me two.. 
      D7 
e|---------------------------------10--- 
B|-----------5--?3br---5-5--3-10/12--13- 
G|---------2--------5-2----------------- 
D|-------------------------------------- 
A|-------------------------------------- 
E|-------------------------------------- 
times girl       One for tomorrow, one just.. 
 
          C7 
e|---------x-x-x-x-x-x--- 
B|---------1-1-1-1-1-1--- 
G|---------3-3-3-3-3-3--- 
D|---------2-2-2-2-2-2--- 
A|---------3-3-3-3-3-3--- 
E|---------0-0-0-0-0-0--- 
..for today 
 
   G       D        C7    B7              
e|-3-------2---------x-----2--- 
B|-3-------3---------1-----4--- 
G|-0-------2---------3-----2--- 
D|-0-------0---------2-----4--- 
A|-2-------0---------3-----2--- 
E|-3-------x---------0-----2--- 
   Love me two times.. I'm goin'.. 
 
         C7 
e|--------x-x-x-x-x-x-x-x-x-x-x- 
B|--------1-1-1-1-1-1-1-1-1-1-1-- 
G|--------3-3-3-3-3-3-3-3-3-3-3-- 
D|--------2-2-2-2-2-2-2-2-2-2-2-- 
A|--------3-3-3-3-3-3-3-3-3-3-3-- 
E|--------0-0-0-0-0-0-0-0-0-0-0-- 
  ..away 
 
G       D         C7    B7         C7 
Love me two times.. I'm goin' away 
 
G       D         C7    B7            C7 
Love me two times.. I'm goin' awaaaayy!!! 
 
================================================ 
Dúvidas ou sugestões: thiagoravache@globo.com.br  
================================================ 
?KATA TON LAIMONA EAYTOY? 
================================================ 
 
Correção: Thiago Ravache (thiagoravache@globo.com.br) 

	  

Request the video "Love me 2 times"  -  Send "Love me 2 times" Ringtone to your Cell

there isn't a video lesson for this song

request
Full key step upFull key step up
Half key step upHalf key step up
Half key step downHalf key step down
Full key step downFull key step down
Search
auto scroll beats size up size down change color hide chords drawings
tab show chords e-chords YouTube Clip e-chords hide all tabs e-chords go to top tab