The Civil Wars

home > The Civil ... > chords

I Want You Back Tab

The Civil Wars

Difficulty: BeginnerBeginner

by joaoewerton

tuner correct add songbook print version text version rtf version e-mail
chordsukulelecavacokeyboardtabbassdrumsharmonicsflute Guitar Pro
chords

I Want You Back

	  
 Intro:  

e|-------0---|-------0---|-------0---|-------0---|-------0---|-------0---|-----------|-----------| 
B|-7---------|-5---------|-3---------|-2---------|-0---------|-----------|-----------|-----------| 
G|-----------|-----------|-----------|-----------|-----------|-0---------|-2-------2-/-7---------| 
D|-----0---0-|-----0---0-|-----0---0-|-----0---0-|-----0---0-|-----0---0-|-----------|-----------| 
A|-5---------|-4---------|-2---------|-0---------|-----------|-----------|-----------|-5---------| 
D|-----------|-----------|-----------|-----------|-5---------|-2---------|-0---------|-----------| 

e|-------0---|-------0---|-------0---|-------0---|-------0---|-------0---|-------0---|-----------| 
B|-----------|-----------|-5---------|-0---------|-----------|-----------|-----------|-----------| 
G|-7---------|-6---------|-----------|-----------|-4---------|-6---------|-7---------|-----------| 
D|-----0---0-|-----0---0-|-----0---0-|-----0---0-|-----0---0-|-----0---0-|-----0---0-|-0---------| 
A|-----------|-----------|-----------|-----------|-----------|-----------|-----------|-----------| 
D|-0---------|-0---------|-0---------|-0---------|-5---------|-7---------|-0---------|-0---------| 


 Verse: 

e|-------0---|-------0---|-------0---|-------0---|-------0---|-------0---|-------0---|-----------| 
B|-7---------|-5---------|-3---------|-2---------|-0---------|-----------|-----------|-----------| 
G|-----------|-----------|-----------|-----------|-----------|-0---------|-2-------2-/-7---------| 
D|-----0---0-|-----0---0-|-----0---0-|-----0---0-|-----0---0-|-----0---0-|-----0---0-|-----------| 
A|-5---------|-4---------|-2---------|-0---------|-----------|-----------|-----------|-5---------| 
D|-----------|-----------|-----------|-----------|-5---------|-2---------|-0---------|-----------| 

e|-------0---|-------0---|-------0---|-------0---|-------0---|-------0---|-------0---|-------0---| 
B|-----------|-----------|-5---------|-0---------|-----------|-----------|-----------|-----------| 
G|-7---------|-6---------|-----------|-----------|-4---------|-6---------|-7---------|-7---------| 
D|-----0---0-|-----0---0-|-----0---0-|-----0---0-|-----0---0-|-----0---0-|-----0---0-|-----0---0-| 
A|-----------|-----------|-----------|-----------|-----------|-----------|-----------|-----------| 
D|-0---------|-0---------|-0---------|-0---------|-5---------|-7---------|-0---------|-0---------| 

e|-------0---|-------0---|-------0---|-------0---|-------0---|-------0---|-------0---|-----------| 
B|-7---------|-5---------|-8---------|-----------|-----------|-----------|-----------|-----------| 
G|-----------|-----------|-----------|-2---------|-0---------|-0---------|-2-------2-|-7---------| 
D|-----0---0-|-----0---0-|-----0---0-|-----0---0-|-----0---0-|-----0---0-|-----0---0-|-0---------| 
A|-5---------|-4---------|-7---------|-----------|-----------|-----------|-----------|-----------| 
D|-----------|-----------|-----------|-4---------|-5---------|-2---------|-0---------|-----------| 

e|-------0---|-------0---|-------0---|-------0---|-------0---|-------0---|-------0---|-----------| 
B|-----------|-----------|-----------|-----------|-----------|-----------|-----------|-----------| 
G|-7---------|-6---------|-4---------|-2---------|-4---------|-6---------|-7---------|-7---------| 
D|-----0---0-|-----0---0-|-----0---0-|-----0---0-|-----0---0-|-----0---0-|-----0---0-|-----------| 
A|-----------|-----------|-----------|-----------|-----------|-----------|-----------|-----------| 
D|-0---------|-0---------|-0---------|-0---------|-5---------|-7---------|-0---------|-0---------| 

 Chorus:  

e|-----------|-----------|-----------|-----------|-----------|-----------|-----------|-----------| 
B|-----------|-----------|-----------|-----------|-----------|-----------|-----------|-----------| 
G|-7---------|-----------|-----------|-----------|-------0---|-------0---|-------0---|-------0---| 
D|-0---------|-4----2----|-0----2----|-4----0----|-2---------|-2---------|-2---------|-2---------| 
A|-----------|-----------|-----------|-----------|-----------|-----------|-----------|-----------| 
D|-0---------|-0----0----|-0----0----|-0----0----|-0---0---0-|-0---0---0-|-0---0---0-|-0---0---0-| 

e|-------0---|-------0---|-------0---|-------0---|-------0---|-------0---|-------0---|-------0---| 
B|-3---------|-----------|-----------|-----------|-----------|-----------|-----------|-----------| 
G|-----------|-2---------|-0---------|-2---------|-0---------|-0---------|-2---------|-2---------| 
D|-----0---0-|-----0---0-|-----0---0-|-----0---0-|-----0---0-|-----0---0-|-----0---0-|-----0---0-| 
A|-2---------|-----------|-----------|-----------|-----------|-0---------|-----------|-----------| 
D|-----------|-4---------|-5---------|-4---------|-2---------|-----------|-0---------|-0---------|  
  
e|-----------|-----------|-----------|-----------|-----------|-----------|-----------|-----------| 
B|-----------|-----------|-----------|-----------|-----------|-----------|-----------|-----------| 
G|-7---------|-----------|-----------|-----------|-------0---|-------0---|-------0---|-------0---| 
D|-0---------|-4----2----|-0----2----|-4----0----|-2-------2-|---------2-|---------2-|---------2-| 
A|-----------|-----------|-----------|-----------|-----------|-----------|-----------|-----------| 
D|-0---------|-0----0----|-0----0----|-0----0----|-0---0-----|-0---0-----|-0---0-----|-0---0-----| 

e|-------0---|-------0---|-------0---|-------0---|-------0---|-------0---|-------0---|-----------| 
B|-3---------|-----------|-----------|-----------|-----------|-----------|-----------|-----------| 
G|-----------|-2---------|-0---------|-2---------|-0---------|-0---------|-2---------|-2---------| 
D|-----0---0-|-----0---0-|-----0---0-|-----0---0-|-----0---0-|-----0---0-|-----0---0-|-----------| 
A|-2---------|-----------|-----------|-----------|-----------|-0---------|-----------|-----------| 
D|-----------|-4---------|-5---------|-4---------|-2---------|-----------|-0---------|-0---------| 

e|-------0---|-----------|-----------|-----------| 
B|-----------|-----------|-----------|-----------| 
G|-2---------|-2-------2-/-7-------7-/-11--------| 
D|-----0---0-|-----------|-----------|-----------| 
A|-----------|-----------|-----------|-----------| 
D|-0---------|-0-------0-|-0-------0-|-0---------| 
	  

Request the video "I Want You Back"  -  Send "I Want You Back" Ringtone to your Cell

there isn't a video lesson for this song

request
e-chords
Search
auto scroll beats size up size down change color hide chords drawings
tab show chords e-chords YouTube Clip e-chords hide all tabs e-chords go to top tab