The Black Keys

home > The Black ... > chords

Lonely Boy Tab

The Black Keys

Difficulty: ExpertExpert

by brunblazkowski

tuner correct add songbook print version text version rtf version e-mail
chordsukulelecavacokeyboardtabbassdrumsharmonicsflute Guitar Pro
chords

Lonely Boy

	   

The intro has a giant whammy bar dive. It is very hard to play this intro without one. 

e|--------------------------| 
B|--------------------------| 
G|--------------------------| 
D|--------------------------| 
A|--------------------------| 
D|--222-x-2-5(hb)-2-222-0v--| 

The 5th fret has a half bend. The last note (the open D) is the note where you dive the  
whammy bar down to a low B. 

Keyboard part: (x2) 

e|-----------------------------------| 
B|-----------------------------------| 
G|-9-9--9p7--------------------------| 
D|----------7-5-7---7-7--7p5---------| 
A|----------------------------5-7-5--| 
D|-----------------------------------| 

e|---0-0--0-0-----------| 
B|---0-0--0-0-----------| 
G|---0-0--0-0-----------| 
D|---2-2--2-2-----------| Repeat this until singing starts 
A|----------------------| 
D|------------2-5(hb)-2-| 

Verse 
       Em          G          A 
e|---0-0-0-0-----3-3-3-3-----5-5-5-5---| 
B|---0-0-0-0-----3-3-3-3-----5-5-5-5---| 
G|---0-0-0-0-----4-4-4-4-----6-6-6-6---| 
D|---2-2-2-2-----5-5-5-5-----7-7-7-7---| 
A|-------------------------------------| 
D|-2-----------5-----------7-----------| 

Chorus 
e|--------------------------------------| 
B|--------------------------------------| 
G|--------------------------------------| 
D|-2-2-2-2-2-2-2-2-x-5-5-5-5-x-7-7-7-7--| 
A|-2-2-2-2-2-2-2-2-x-5-5-5-5-x-7-7-7-7--| 
D|-2-2-2-2-2-2-2-2-x-5-5-5-5-x-7-7-7-7--| 

 
	  

Request the video "Lonely Boy"  -  Send "Lonely Boy" Ringtone to your Cell

there isn't a video lesson for this song

request
Full key step upFull key step up
Half key step upHalf key step up
Half key step downHalf key step down
Full key step downFull key step down
e-chords
Search
auto scroll beats size up size down change color hide chords drawings
tab show chords e-chords YouTube Clip e-chords hide all tabs e-chords go to top tab