The Beautiful Girls

home > The Beauti... > chords

Freedom (part 2) Tab

The Beautiful Girls

Difficulty: AdvancedAdvanced

by caxero

tuner correct add songbook print version text version rtf version e-mail
chordsukulelecavacokeyboardtabbassdrumsharmonicsflute Guitar Pro
chords

Freedom (part 2)

	  Intro: 

e--------------------------------------------------------------------| 
B----7---------7---7---------7---------------------------------------| 
G--------8-------------8----------9--8-------------------------------| 
D-------------------------------------------11----11/13---11p9-------| 
A------------------6--------------7--7--------------------------11p9-| 
E----7------------------------------------------7--------------------| 

verse: 
e--------7---------6-------7-----------------------------------------| 
B--------7---------7-------9-----------------------------------------| 
G--------8---------8-------9-----------------------------------------| 
D--------9------8--8----9--9-----------11----11/13---11p9------------| 
A------9-9---6-----6---7---7--------------------------------11p9-----| 
E-7------7-----------------------7-----------------------------------| 

Chorus: 
e--------------------------------------------------------------------| 
B--------------------------------------------------------------------| 
G-----8h9p8----------------9-----8h9-8h9p8---------------------------| 
D-----------9-----11----9-------9---9-----9--------------------------| 
A---9-----------9------7---------------------------------------------| 
E-7---------------------------7--------------------------------------| 

Well I may not be you and you not me, 
but between us there are certain similarities. 
Like I belive in love and the Devil will come, 
looking for us if we wrong some one. 

Freedom, is ours to hold. 
It's just a struggle in your mind, 
to keep your soul, keep your soul. 
And it's old, yes it's old, 
it's just a struggle in your mind to keep your soul. 

Well how long you're down, 
depends how you rise. 
And life has a meaning so open your eyes. 
The seeds that we speed into life to be trees, 
will soon become fallen, 
if their roots aren't deep.
	  

Request the video "Freedom (part 2)"  -  Send "Freedom (part 2)" Ringtone to your Cell

there isn't a video lesson for this song

request
e-chords
Search
auto scroll beats size up size down change color hide chords drawings
tab show chords e-chords YouTube Clip e-chords hide all tabs e-chords go to top tab