The Beautiful Girls

home > The Beauti... > chords

Big Mama's Door Tab

The Beautiful Girls

Difficulty: nolevelnolevel

tuner correct add songbook print version text version rtf version e-mail
chordsukulelecavacokeyboardtabbassdrumsharmonicsflute Guitar Pro
chords

Big Mama's Door

	  transcribed by Damian Smith 
 
{Originally from www.xrtab.com} 
 
tuning DGCFAD - capo 4 
 
Notes: when Mat plays this live he mostly keeps his fingers in a barred A7 
       position (i.e. x02223, with all the 2s held by the first finger) 
 
INTRO 
d|---0-----0---0---0--0-------0-----0--0--0-----------| 
A|-4b5---4b5---3---1--3-----4b5-----3--1--3---1-------| 
F|-------------------------------------------2----2~--| 
C|----------------------------------------------------| 
G|----------------------------------------------------| 
D|----------------------------------------------------| 
 
d|-------------------3--3-|---------------------3--3--| 
A|-------------------2--2-|---------------------2--2--| 
F|----------------0-------|------------------0--------| 
C|------------------------|---------------------------| 
G|-----3b-0---------------|------0--3b-0--------------| 
D|-0h3----------0---------|-0h3------------0----------| 
 
That's about all you need to get going. 

	  

Request the video "Big Mama's Door"  -  Send "Big Mama's Door" Ringtone to your Cell

there isn't a video lesson for this song

request
Full key step upFull key step up
Half key step upHalf key step up
Half key step downHalf key step down
Full key step downFull key step down
Search
auto scroll beats size up size down change color hide chords drawings
tab show chords e-chords YouTube Clip e-chords hide all tabs e-chords go to top tab