The Beautiful Girls

home > The Beauti... > chords

A Million Miles Tab

The Beautiful Girls

Difficulty: nolevelnolevel

by caxero

tuner correct add songbook print version text version rtf version e-mail
chordsukulelecavacokeyboardtabbassdrumsharmonicsflute Guitar Pro
chords

A Million Miles

	  
Afinar em Ré - D G C F A d  

d|--------------------------------------------------|  
A|---3--3--3-3-3-3----3--3--3-3-3-3-3--3------------|  
F|---0--0--0-b42-0----0--0--0-0-0-0-2p0-------------|  
C|---0--0--0-------0h2-----------------0h2----------|  
G|-----------------------3--3-3-3-3-----------------|  
D|--------------------------------------------------| 


d|--------------------------------------------------|  
A|--3--3--3-3-3-3----3--3--3-3-3--3-3-3-3-----------|  
F|--0--0--0-b42-0----0--0--0-0-2--2-2-0-------------|  
C|--0--0--0-------0h2----------0-0-0-0----4---------|  
G|----------------------3--3-3----------------------|  
D|--------------------------------------------------|  

Well i won't be younger than today 
I've walked amillion miles but i'm still on my way. 
What if seven clouds fly over head? 
Would seven kisses make us ok again? 

Well i will say goodbye ok 
Because this may be the last time. 
And i wan't you to know i love you, 
forever my friend. 

	  

Request the video "A Million Miles"  -  Send "A Million Miles" Ringtone to your Cell

there isn't a video lesson for this song

request
Full key step upFull key step up
Half key step upHalf key step up
Half key step downHalf key step down
Full key step downFull key step down
Search
auto scroll beats size up size down change color hide chords drawings
tab show chords e-chords YouTube Clip e-chords hide all tabs e-chords go to top tab