Temas Diversos

home > Temas Dive... > chords

Tema Mario Tab

Temas Diversos

Difficulty: nolevelnolevel

by gustsilva

tuner correct add songbook print version text version rtf version e-mail
chordsukulelecavacokeyboardtabbassdrumsharmonicsflute Guitar Pro
chords

Tema Mario

	   
E|-12--12--12----12--15----| 
B|------------13-----------| 
G|----------------------12-| 
D|-------------------------| 
A|-------------------------| 
E|-------------------------| 
 


 
E|-------------------------| 
B|-13----------------------| 
G|----12------10-12-11-10--| 
D|-------9-10--------------| 
A|-------------------------| 
E|-------------------------| 
 


 
E|----12-15-17-12-15-12-----------| 
B|----------------------13-15-12--| 
G|-12-----------------------------| 
D|--------------------------------| 
A|--------------------------------| 
E|--------------------------------| 
 


 
E|-15-14-13----------------| 
B|----------16-17----------| 
G|-------------------------| 
D|-------------------------| 
A|-------------------------| 
E|-------------------------| 
 


 
E|------8----8-10----------| 
B|-8-10---10---------------| 
G|-------------------------| 
D|-------------------------| 
A|-------------------------| 
E|-------------------------| 
 


 
E|-15-14-13-------20-20-20-| 
B|----------16-17-20-20-20-| 
G|-------------------------| 
D|-------------------------| 
A|-------------------------| 
E|-------------------------| 
 


 
E|-10-10-8-----------------| 
B|---------8-8-------------| 
G|-------------------------| 
D|-------------------------| 
A|-------------------------| 
E|-------------------------| 
 


 
E|-8-8-8-|-8-10-|-12-8-----| 
B|-------|------|------10-8| 
G|-------|------|----------| 
D|-------|------|----------| 
A|-------|------|----------| 
E|-------|------|----------| 
 


 
E|-8-8-8-|-8-10-12---------| 
B|-------|-----------------| 
G|-------|-----------------| 
D|-------|-----------------| 
A|-------|-----------------| 
E|-------|-----------------| 
 


 
E|-8-8-8-|-8-10-|-12-8-----| 
B|-------|------|------10-8| 
G|-------|------|----------| 
D|-------|------|----------| 
A|-------|------|----------| 
E|-------|------|----------| 
 


 
E|-12--12--12----12--15----| 
B|------------13-----------| 
G|----------------------12-| 
D|-------------------------| 
A|-------------------------| 
E|-------------------------| 
 
	  

Request the video "Tema Mario"  -  Send "Tema Mario" Ringtone to your Cell

there isn't a video lesson for this song

request
Search
auto scroll beats size up size down change color hide chords drawings
tab show chords e-chords YouTube Clip e-chords hide all tabs e-chords go to top tab