Sungha Jung

home > Sungha Jun... > chords

Gravity Tab

Sungha Jung

Difficulty: ExpertExpert

by tarikike

tuner correct add songbook print version text version rtf version e-mail
chordsukulelecavacokeyboardtabbassdrumsharmonicsflute Guitar Pro
chords

Gravity

	  

                     ^                                            
      H.             Q       S S S S S S  S S S S  S S S  E   S   
B ||---------------<>5----|----7--------------------------------| 
F#||---------------<>5----|------8-----7h-8-8--------7---10b--8-| 
D ||---------------<>5----|--------7------------7h-9------------| 
A ||---------------<>5----|-------------------------------------| 
E ||---------------<>5----|----------x-----------------x--------| 
B ||---------------<>5----|--0-------x--------0--------x--------| 


  S  S S S S  S   S  S S  S S  S S S  S S   
-------------10s-12-12--------10---8s-7---| 
---------8----8s-10-10------------------8-| 
-------9-----------------11---------------| 
----10-----------------0----0-------------| 
--0--------x---------------------x--------| 
-----------x---------------------x--------| 


  S S S S S S  S S S S  S S S S  S S    S  S S S S  E    S  S. S. S  E  S  S   
----7---------------------------10---|-------------10s--12-12-12-12-12--L\---| 
------8-----7h-8-8--------7---8----8-|---------8----8s--10-10-10-10-10--L\---| 
--------7------------7h-9------------|-------9-------------------------------| 
-------------------------------------|----10----------------0--0--0--0-----0-| 
----------x-----------------x--------|--0--------x--0------------------------| 
--0-------x--------0--------x--------|-----------x---------------------------| 


  S   S S  S S S  S S S S S  S S   S S S    S S S S S S  S S E  S S S S  S S   
---------------3p-2-0-----2p-0-------0---|--------0--------------------------| 
--------3h-5---------------------2g3---1-|--------1---1p-0-0---------------0-| 
----2g4-----------------0----------------|------0-----------------2---2p-0---| 
-----------------------------------------|----2--------------0--0------------| 
-------------x-----------------x---------|--0-------x---------------x--------| 
--0----------x--------0--------x---------|----------x---------------x--------| 


  S   S S  S S S  S S E   S S S S  S S   
---------------2h-3-5-Ls--7-7---7s-8-8-| 
--------3h-5---------------------------| 
----2g4--------------------------------| 
---------------------------------------| 
-------------x----------------x--------| 
--0----------x--------0---0---x--------| 


  S S S S S S  S S S  S S S S T  T  S S    S S S S S S  S S S S S S S S  S S   
--------7---7p-5----------5-------------|------------------------------------| 
--------5---5------5h-7-------5h-7p-5---|--------8---8p-7--------------------| 
----------------------------------------|------7----------7-------4---5h-7-7-| 
----5--------------0----0-----0-------0-|----9----------------0--------------| 
--0---0---x-0----0----------x-----------|----------x----------------x--------| 
----------x-----------------x-----------|--0-------x--------0---0---x--------| 


  S S S S S E  S S  S S S S S  S S   
-----------------------------------| 
---------------------------------0-| 
--------5---5----5p-4---2---2h-4---| 
----5---5---5--0-0----0------------| 
--0---0---x---------------x--------| 
----------x---------------x--------| 


  S    S  S  S S  T   T   S  S E  S  S S  S   S S   
------------12---12-----------------------------0-| 
---------12------12h-13p-12-----------------------| 
----2g12--------------------14------12---11h-12---| 
----2g12------------------------------------------| 
---------------x-----------------------x----------| 
--0------------x---------------0--0----x----------| 


  E  S S S E  S S   S S S S S  S S   
---------------------------------0-| 
-------1---1------------8---5h-7---| 
--------------0---2g4-7------------| 
----------------0------------------| 
--0--0---x-0--------------x--------| 
---------x----------------x--------| 


           NH    NH    NH         NH    NH    NH  
  S S S    S S   S S   S S S S    S S   S S   S   
--------<>12-------------------<>12-------------| 
--------<>12---<>7-------------<>12---<>7-------| 
---------------<>7---<>5--------------<>7---<>5-| 
-------------x-----x-<>5------------x-----x-<>5-| 
-------------x-----x----------------x-----x-----| 
--0-0-0------------------0-0-0------------------| 


  S  S S S S E   S S S S S S S  S S   
------------------------------------| 
---------5---5s--7-7-----7---5s-7-8-| 
---------5---5s--7-------7----------| 
-----------------------7-----5s-7-9-| 
-----------x---------------x--------| 
--0h-5-5---x-5s--7-7-7-----x--------| 


           NH    NH    NH         NH    NH    NH  
  S S S    S S   S S   S S S S    S S   S S   S   
--------<>12-------------------<>12-------------| 
--------<>12---<>7-------------<>12---<>5-------| 
---------------<>7---<>5--------------<>5---<>5-| 
-------------x-----x-<>5------------x-----x-<>5-| 
-------------x-----x----------------x-----x-----| 
--0-0-0------------------0-0-0------------------| 


  S  S S S S E   S S. S. S E.  S    S S S S S S  S  S  S  S S S S  S  S S   
---------------------------------|--------7---8s-7------------------------| 
---------5---5s--7-7--7--7-7-----|------8----------10---------8---10p-8-7-| 
---------5---5s--7-7--7--7-7-----|----9---------------------0-------------| 
-------------------------------0-|-----------------------10-------10------| 
-----------x---------------------|----------x-------------------x---------| 
--0h-5-5---x-5s--7-7--7--7-7-----|--8-------x---------10--------x---------| 


  S S  S  S S S  S S S  S S S  S S S S    S  S S S S S  S S S S S  S S S  S S   
-------------------0--------0----------|--------------------------------------| 
----------7---7h-8---8p-7------0-----0-|-------------1p-0-------------------3-| 
--------------------------9-L\---5-----|---------0--------2-----2p-0----------| 
----0------------------------------7---|-------2------------0-0--------2s-4---| 
------(0)---x--------------------------|--0h-3-----x-----------------x--------| 
--0---------x--------0-----------------|-----------x-----------------x--------| 


  S S S  S S   S S S S  S  S S S S  S S   
---------------------3p-2p-0---0--------| 
------1p-0-------0-----------3---1p-0---| 
-------------1g2---0------------------0-| 
----0-----------------------------------| 
-----------x----------------------------| 
--0--------x---------0------------------| 


  S S S S S S  S  S  S  S S S S  S   S  S   
--------7---8s-7--------------------------| 
------8----------10---------8---10s-12-12-| 
----9---------------------0---------------| 
-----------------------10-------10s-12-12-| 
----------x-------------------x-----------| 
--8-------x---------10--------x-----------| 


  S  S  S  S S  S  S S S  S S S  S S S S   
---------------------0--------0----------| 
----------10---10s-8---8p-7------0-----0-| 
----------------------------9-L\---5-----| 
----12-------------------------------7---| 
-------10----x---------------------------| 
--0----------x---------0-----------------| 


  S  S S S S S  S S S S S  S S T  T S S    S S  S S S  S S  S S S Q.       
----------------------------------------|--------------------------------| 
-------------1p-0-----------------------|--------------------------------| 
---------0--------2-----2p-0--------0---|--------------------------------| 
-------2------------0-0--------2s-4---2-|-----------0h-2-----------------| 
--0h-3-----x-----------------x----------|----0h-2-3------0h-2------------| 
-----------x-----------------x----------|--0------------------0----------| 


  S S S S S S  S S S S  S S S  E   S   
----7--------------------------------| 
------8-----7h-8-8--------7---10b--8-| 
--------7------------7h-9------------| 
-------------------------------------| 
----------x-----------------x--------| 
--0-------x--------0--------x--------| 


  S  S S S S  S   S  S S  S  S  S S S  S S   
-------------10s-12-12---------10---8s-7---| 
---------8----8s-10-10------10-----------8-| 
-------9-----------------11----------------| 
----10-----------------0-------------------| 
--0--------x----------------------x--------| 
-----------x----------------------x--------| 


  S S S S S S  S S S S  S S S S  S S    S  S S S S  E    S  S. S. S  E  S  S   
----7---------------------------10---|-------------10s--12-12-12-12-12--L\---| 
------8-----7h-8-8--------7---8----8-|---------8----8s--10-10-10-10-10--L\---| 
--------7------------7h-9------------|-------9-------------------------------| 
-------------------------------------|----10----------------0--0--0--0-----0-| 
----------x-----------------x--------|--0--------x--0------------------------| 
--0-------x--------0--------x--------|-----------x---------------------------| 


  S S  S S S T  T  S S E  S S S S  S S    E  E  S S  S  S S  S S S S S  S S   
---------------------------------------|--------0-0-------------------------| 
---------------------------------------|--------0-0-(0)-0-1p-0---0--------0-| 
---------------------------------------|-----0--0-0-(0)--------2-----2p-0---| 
---------4---4s-5s-4-2------0----------|-----0--0-0-------0-----------------| 
----5h-7---x------------------x-3s-2-0-|--L-----2------------------x--------| 
--0--------x-----------0--0---x--------|--------0------------------x--------| 


  S S  S S S  S  S S S S  S  S S S S  S   
----------------------------------------| 
----------------------------------------| 
-------------------0---4p-2p-0---0------| 
-----------0h-2h-4-------------4---2p-0-| 
----0h-2-3------------------------------| 
--0------------------0------------------| 


  S S  S S  S  S S  S S S  S S S S  S S   
--------------------------------------0-| 
-----------------5h-7---8p-7---7------0-| 
---------4h-5h-7-------------9---9p-7---| 
----5h-7--------------0-----------------| 
--0-------------------------------------| 
----------------------------------------| 


           NH    NH    NH         NH    NH    NH  
  S S S    S S   S S   S S S S    S S   S S   S   
--------<>12-------------------<>12-------------| 
--------<>12---<>7-------------<>12---<>7-------| 
---------------<>7---<>5--------------<>7---<>5-| 
-------------x-----x-<>5------------x-----x-<>5-| 
-------------x-----x----------------x-----x-----| 
--0-0-0------------------0-0-0------------------| 


                   ^                  
  S  S S S S E   S S S S S S S  S S   
------------------------------------| 
---------5---5s--7-7-----7---5s-7-8-| 
---------5---5s--7-7-----7----------| 
-------------------7---7-----5s-7-9-| 
-----------x---------------x--------| 
--0h-5-5---x-5s--7-7-7-----x--------| 


           NH    NH    NH         NH    NH    NH  
  S S S    S S   S S   S S S S    S S   S S   S   
--------<>12-------------------<>12-------------| 
--------<>12---<>7-------------<>12---<>5-------| 
---------------<>7---<>5--------------<>5---<>5-| 
-------------x-----x-<>5------------x-----x-<>5-| 
-------------x-----x----------------x-----x-----| 
--0-0-0------------------0-0-0------------------| 


  S  S S S S E   S S. S. S E.  S    S S S S S S  S  S  S  S S S S  S  S S   
---------------------------------|--------7---8s-7------------------------| 
---------5---5s--7-7--7--7-7-----|------8----------10---------8---10p-8-7-| 
---------5---5s--7-7--7--7-7-----|----9---------------------0-------------| 
-------------------------------0-|-----------------------10-------10------| 
-----------x---------------------|----------x-------------------x---------| 
--0h-5-5---x-5s--7-7--7--7-7-----|--8-------x---------10--------x---------| 


  S S  S  S S S  S S S  S S S  S S S S    S  S S S S S  S S S S S  S S S  S S   
-------------------0--------0----------|--------------------------------------| 
----------7---7h-8---8p-7------0-----0-|-------------1p-0-------------------3-| 
--------------------------9-L\---5-----|---------0--------2-----2p-0----------| 
----0------------------------------7---|-------2------------0-0--------2s-4---| 
------(0)---x--------------------------|--0h-3-----x-----------------x--------| 
--0---------x--------0-----------------|-----------x-----------------x--------| 


  S S S  S S   S S S S  S  S S S S  S S   
---------------------3p-2p-0---0--------| 
------1p-0-------0-----------3---1p-0---| 
-------------1g2---0------------------0-| 
----0-----------------------------------| 
-----------x----------------------------| 
--0--------x---------0------------------| 


  S S S S S S  S  S  S  S S S S  S   S  S   
--------7---8s-7--------------------------| 
------8----------10---------8---10s-12-12-| 
----9---------------------0---------------| 
-----------------------10-------10s-12-12-| 
----------x-------------------x-----------| 
--8-------x---------10--------x-----------| 


  S  S  S  S S  S  S S S  S S S  S S S S   
---------------------0--------0----------| 
----------10---10s-8---8p-7------0-----0-| 
----------------------------9-L\---5-----| 
----12-------------------------------7---| 
-------10----x---------------------------| 
--0----------x---------0-----------------| 


  S  S S S S S  S S S S S  S S T  T S S    S S  S S S  S S  S E.  S S E.    
----------------------------------------|---------------------------------| 
-------------1p-0-----------------------|---------------------------------| 
---------0--------2-----2p-0--------0---|---------------------------------| 
-------2------------0-0--------2s-4---2-|-----------0h-2------------x-----| 
--0h-3-----x-----------------x----------|----0h-2-3------0h-2-------x-----| 
-----------x-----------------x----------|--0------------------0---0---7---| 


    S S  S S S  S S  S  S  S  S  S S  S  S  S   
|-----8p-0---7p-0-----------------------------| 
|-----------------8p-0----10p-0----8p-0-10p-0-| 
|*--------------------------------------------| 
|*--------------------------------------------| 
|---------------------------------------------| 
|---8------8-----------10-------10------------| 


                          Yeap not sure:/ sorry guys.                            
   S  S  S  S  S  S S  S  T                          T  T  T  T  T T  T T  T T   
-------------------------------------------------------------------------------- 
-----12p-0----10p-0-8p-0-------------------------------------------------------- 
-------------------------12p-------------------------0-11p-0-11p-0-9p-0-9p-0-7p- 
-------------------------------------------------------------------------------- 
-------------------------------------------------------------------------------- 
--12-------12------------------------------------------------------------------- 


  S  S  S S S  S  S  S  S  S  S  S S  S  S  S   
-----8p-0---7p-0--8p-0-----8p-0----7p-0--8p-0-| 
----10p-0---8p-0-10p-0----10p-0----8p-0-10p-0-| 
----------------------------------------------| 
----------------------------------------------| 
----------------------------------------------| 
--8-------8------------10-------10------------| 


   S  S  S  S  S  S S  S  S S S S S S S S     
-----10p-0-----8p-0-7p-0----0-----0-----0--|| 
-----12p-0----10p-0-8p-0------0-----0------|| 
-------------------------11-----9-----7---*|| 
------------------------------------------*|| 
-------------------------------------------|| 
--12-------12------------------------------|| 


  S  S  S S S  S  S  S  S S  S  S S  S S S   
-----8p-0---7p-0--8p-0----7p-0----7----0---| 
----10p-0---8p-0-10p-0----8p-0----8------0-| 
------------------------------------11-----| 
-------------------------------------------| 
-------------------------------------------| 
--8-------8------------10------10----------| 


                    TH                                                       
   E  S S S S   S   E.   E  S  E  S     E  S S S T  T  S S E  S S S S  S S   
------------------<>0----------------|-------7---7-------------------------| 
--------0---------<>0----------------|-------7---7h-8p-7-------------------| 
------0-----------<>0----------------|-------------------9------7---5s-4-5-| 
------------------<>0----------------|-------------------------------------| 
----------x-----------------x--------|---------x------------------x--------| 
--12------x-0h-12-------12--x-12--L\-|--0--0---x-----------0--0---x--------| 


  E  S S S S  S S S  S  S S S E   S     S S S S S S  S S S S S S S S  S S   
------------------------------5------|------------------------------------| 
-------5---7s-8-8---------7---7------|--------8---8p-7--------------------| 
-------5------------(5)---5----------|------7----------7-------4---5h-7-7-| 
------------------0-----0-----0--(0)-|----9----------------0--------------| 
--0--0---x------------------x--------|----------x----------------x--------| 
---------x------------------x--------|--0-------x--------0---0---x--------| 


  E  S S S E   S  S  S S S S T  T  S S   
-------------------------5-------------| 
------------------5h-7-------5h-7p-5---| 
-------5---5-------------------------5-| 
-------5---5--(0)-0----0-----0---------| 
--0--0---x-0---------------x-----------| 
---------x-----------------x-----------| 


  E  S S S S   S  S E  S  S S  S   S S     S  S S S S S  S S S S S S S E   S    
-------7---7h-10-10------10---10s-12-L\-|---------5---------------------------| 
-------8--------------------------------|--5h-7---7---7s-8-8-------7---7------| 
----------------------------------------|----------------------5---5---5------| 
----------------------------------------|--------------------0---0-----0--(0)-| 
---------x------------------x-----------|--0----0---x----------------x--------| 
--0--0---x----------0--0----x-----------|-----------x----------------x--------| 


  S S S S S S  S S S S S S S S  S S    E  S S S E   S  E  S S S S  S S   
------------------------------------|--------------------------------5-| 
--------8---8p-7--------------------|-----------------------5---5h-7---| 
------7----------7-------4---5h-7-7-|-------5---5-----------5---5------| 
----9----------------0--------------|-------5---5--(0)-0--0------------| 
----------x----------------x--------|--0--0---x-0-------------x--------| 
--0-------x--------0---0---x--------|---------x---------------x--------| 


  S S S S S S  S  S  S  S S S S  S  S S   
--------7---8s-7------------------------| 
------8----------10---------8---10p-8-7-| 
----9---------------------0-------------| 
-----------------------10-------10------| 
----------x-------------------x---------| 
--8-------x---------10--------x---------| 


  S S  S  S S S  S S S  S S S  S S S S    S  S S S S S  S S S S S  S S S  S S   
-------------------0--------0----------|--------------------------------------| 
----------7---7h-8---8p-7------0-----0-|-------------1p-0-------------------3-| 
--------------------------9-L\---5-----|---------0--------2-----2p-0----------| 
----0------------------------------7---|-------2------------0-0--------2s-4---| 
------(0)---x--------------------------|--0h-3-----x-----------------x--------| 
--0---------x--------0-----------------|-----------x-----------------x--------| 


  S S S  S S   S S S S  S  S S S S  S S   
---------------------3p-2p-0---0--------| 
------1p-0-------0-----------3---1p-0---| 
-------------1g2---0------------------0-| 
----0-----------------------------------| 
-----------x----------------------------| 
--0--------x---------0------------------| 


  S S S S S S  S  S  S  S S S S  S   S  S   
--------7---8s-7--------------------------| 
------8----------10---------8---10s-12-12-| 
----9---------------------0---------------| 
-----------------------10-------10s-12-12-| 
----------x-------------------x-----------| 
--8-------x---------10--------x-----------| 


  S  S  S  S S  S  S S S  S S S  S S S S   
---------------------0--------0----------| 
----------10---10s-8---8p-7------0-----0-| 
----------------------------9-L\---5-----| 
----12-------------------------------7---| 
-------10----x---------------------------| 
--0----------x---------0-----------------| 


  S  S S S S S  S S S S S  S S T  T S S    S S  S S S  S S  S S S Q.       
----------------------------------------|--------------------------------| 
-------------1p-0-----------------------|--------------------------------| 
---------0--------2-----2p-0--------0---|--------------------------------| 
-------2------------0-0--------2s-4---2-|-----------0h-2-----------------| 
--0h-3-----x-----------------x----------|----0h-2-3------0h-2------------| 
-----------x-----------------x----------|--0------------------0----------| 


  S S  S S S  S S  S  S  S  S  S S  S  S  S   
----8p-0---7p-0-----------------------------| 
----------------8p-0----10p-0----8p-0-10p-0-| 
--------------------------------------------| 
--------------------------------------------| 
--------------------------------------------| 
--8------8-----------10-------10------------| 


   S  S  S  S  S  S S  S  T  T  T  T  T  T T  T T  T T  T T  T T  T   
--------------------------------------------------------------------| 
-----12p-0----10p-0-8p-0--------------------------------------------| 
-------------------------12p-0-11p-0-11p-0-9p-0-9p-0-7p-0-7p-0-5p-0-| 
--------------------------------------------------------------------| 
--------------------------------------------------------------------| 
--12-------12-------------------------------------------------------| 


  S  S  S S S  S  S  S  S  S  S  S S  S  S  S   
-----8p-0---7p-0--8p-0-----8p-0----7p-0--8p-0-| 
----10p-0---8p-0-10p-0----10p-0----8p-0-10p-0-| 
----------------------------------------------| 
----------------------------------------------| 
----------------------------------------------| 
--8-------8------------10-------10------------| 


   S  S  S  S  S  S S  S  S S S S S S S S   
-----10p-0-----8p-0-7p-0----0-----0-----0-| 
-----12p-0----10p-0-8p-0------0-----0-----| 
-------------------------11-----9-----7---| 
------------------------------------------| 
------------------------------------------| 
--12-------12-----------------------------| 


  S S  S S S  S S   S  S  S  S  S S  S  S  S   
----8p-0---7p-0------------------------------| 
----------------8s-10----10p-0----8p-0-10p-0-| 
---------------------------------------------| 
---------------------------------------------| 
---------------------------------------------| 
--8------8------------10-------10------------| 


   S  S  S  S  S  S S  S  T  T  T  T  T  T T  T T  T T  T T  T T  T   
--------------------------------------------------------------------| 
-----12p-0----10p-0-8p-0--------------------------------------------| 
-------------------------12p-0-11p-0-11p-0-9p-0-9p-0-7p-0-7p-0-5p-0-| 
--------------------------------------------------------------------| 
--------------------------------------------------------------------| 
--12-------12-------------------------------------------------------| 


  S  S  S S S  S  S  S  S S  S  S S  S S S   
-----8p-0---7p-0--8p-0----7p-0----7----0---| 
----10p-0---8p-0-10p-0----8p-0----8------0-| 
------------------------------------11-----| 
-------------------------------------------| 
-------------------------------------------| 
--8-------8------------10------10----------| 


                    TH                                                     
   E  S S S S   S   E.   E  S  E  S     E  S S S S  S S S S S S S S  S S   
------------------<>0----------------|---------------------------------0-| 
--------0---------<>0----------------|-------7---7h-8-8-------7---7s-5---| 
------0-----------<>0----------------|-------7---7------------7----------| 
------------------<>0----------------|--------------------0--------------| 
----------x-----------------x--------|---------x----------------x--------| 
--12------x-0h-12-------12--x-12--L\-|--0--0---x--------0---0---x--------| 


  E  S S S S  S S S  S  S S S S  S S    E  S S S S  S  S S S S S S S  S S   
-------------------------------------|-------------------------7---7s-8-8-| 
-------1---1h-3-3---------1---1p-0-0-|-------7---7h-8-10------------------| 
--------------------(2)---2---2p-0---|-------7----------------------------| 
------------------0-----0------------|---------------------0--------------| 
--0--0---x------------------x--------|---------x-----------------x--------| 
---------x------------------x--------|--0--0---x---------0---0---x--------| 


  S  S  S S S S  S  S  S  S S S S T  T  S S   
----------7---7p-5------------5-------------| 
----------5---5--------5h-7-------5h-7p-5---| 
-------------------(0)--------------------5-| 
----(5)----------------0----0-----0---------| 
--0-----0---x-------------------x-----------| 
--x---------x-------------------x-----------| 


  E  S S S S  S S S S S S S S  S S    E  S S S S  S S E  S   S S S  S S   
---------------------------------0-|------------------------------------| 
-------7---7h-8-8-------7---7s-5---|-------1---1p-0-0-----------------0-| 
-------7---7------------7----------|-----------------------1g2---2p-0---| 
--------------------0--------------|------------------0--0--------------| 
---------x----------------x--------|--0--0---x-----------------x--------| 
--0--0---x--------0---0---x--------|---------x-----------------x--------| 


  E  S S S S  S  S S S S S S S  S S   
-------------------------7---7s-8-8-| 
-------7---7h-8-10------------------| 
-------7----------------------------| 
---------------------0--------------| 
---------x-----------------x--------| 
--0--0---x---------0---0---x--------| 


  S  S  S S S S  S  S  S  S S S S T  T  S S   
----------7---7p-5------------5-------------| 
----------5---5--------5h-7-------5h-7p-5---| 
-------------------(0)--------------------5-| 
----(5)----------------0----0-----0---------| 
--0-----0---x-------------------x-----------| 
--x---------x-------------------x-----------| 


  S S  S  S S S S  S S  S  S S  S  S S  S    S S  S  S S  S S  S S S E  Q       
------------------------------------------|----------------------------------|| 
------------------------------------------|----------------------------------|| 
----0h-2p-0---0---------------------------|----------------------------------|| 
------------2---2p-0---------0h-2p-0------|------------0h-2------------------|| 
---------------------0h-2h-3---------0h-2-|----0h-2h-3------0h-2-------------|| 
--0---------------------------------------|----------------------0-----------|| 




 
	  

Request the video "Gravity"  -  Send "Gravity" Ringtone to your Cell

there isn't a video lesson for this song

request
Search
auto scroll beats size up size down change color hide chords drawings
tab show chords e-chords YouTube Clip e-chords hide all tabs e-chords go to top tab