Suicide Silence

home > Suicide Si... > chords

You Only Live Once Tab

Suicide Silence

Difficulty: ExpertExpert

by robepoiel

tuner correct add songbook print version text version rtf version e-mail
chordsukulelecavacokeyboardtabbassdrumsharmonicsflute Guitar Pro
chords

You Only Live Once

	  

INTRO 

Guitar 3 

B|-----------------------------------||-------------------------------------| 
G|-----------------------------------||-------------------------------------| 
D|-----------------------------------||-------------------------------------| 
A|-----------------7-----------------||-------------------------------------| 
E|-6-6-7-6-7-6-6-6---6-6-10-6-6-9-6--||-6-6-7-6-7-6-6-6-9-7----9-7----9-----| 
A|-----------------------------------||---------------------13-----13---13--| 
  ...................................  ..................................... 

B|-----------------------------------||-------------------------------------| 
G|-----------------------------------||-------------------------------------| 
D|-----------------------------------||-------------------------------------| 
A|-----------------7-----------------||-------------------------------------| 
E|-6-6-7-6-7-6-6-6---6-6-10-6-6-9-6--||-6-6-7-6-7-6-6-6-9-7----9-7----9-----| 
A|-----------------------------------||---------------------13-----13---13--| 
  ...................................  ..................................... 
B|---------| 
G|---------| 
D|---------| 
A|---------| 
E|-6-6-7-6-| 
A|---------| 
  ........ 

Guitar 1 and 2 
B|----------------------------------------------| 
G|----------------------------------------------| 
D|----------------------------------------------| 
A|----------------------------------------------| 
E|-1-1---1-1-1---1-1-1---1-1-1-1-1-1-1--1-1-1-1-| 
A|-1-1---1-1-1---1-1-1---1-1-1-1-1-1-1--1-1-1-1-| 
                               .......  ....... 

Guitar 1 and 2
 
B|----------------------------------------------| 
G|----------------------------------------------| 
D|----------------------------------------------| 
A|----------------------------------------------|X2 
E|-1-1---1-1-1---1-1-1---1-1-1-1-1-1-1--1-1-1-1-| 
A|-1-1---1-1-1---1-1-1---1-1-1-1-1-1-1--1-1-1-1-| 
                               .......  ....... 
Guitar 3
 
B|-----------------------------------||-------------------------------------| 
G|-----------------------------------||-------------------------------------| 
D|-----------------------------------||-------------------------------------| 
A|-----------------7-----------------||-------------------------------------| 
E|-6-6-7-6-7-6-6-6---6-6-10-6-6-9-6--||-6-6-7-6-7-6-6-6-9-7----9-7----9-----| 
A|-----------------------------------||---------------------13-----13---13--| 
  ...................................  ..................................... 

Guitar 1 and 2 

B|---------------------------------------------|   |---| 
G|---------------------------------------------|   |---| 
D|---------------------------------------------|   |---| 
A|---------------------------------------------| X4|---| <VERSE 

Guitar 1 and 3 

B|----------------------------------||------------------------------------| 
G|----------------------------------||------------------------------------| 
D|----------------------------------||------------------------------------| 
A|-----------------7----------------||------------------------------------|X4 
E|-6-6-7-6-7-6-6-6---6-6-10-6-6-9-6-||-6-6-7-6-7-6-6-6-9-7----9-7----9----| 
A|----------------------------------||---------------------13-----13---13-| 
 ...................................  ..................................... 

Guitar 2
 
B|-------------------------------------------| 
G|-------------------------------------------| 
D|-------------------------------------------| 
A|-------------------------------------------|X4 
E|-1--1----1-1-1---1--1----1-1-1-1-1-1-1-1-1-| 
A|-1--1----1-1-1---1--1----1-1-1-1-1-1-1-1-1-| 
                                 ........... 

Guitar 1 and 2 
|---| 
|---| 
|---| --on last time 
|---| 
|-0-| 
|-0-| 

CHORUS 

Guitar 1 and 2 

B|--------------------------------------------------| 
G|--------------------------------------------------| 
D|-9-9-9-8-----12-12-12-----9-9-9-8-----------------| 
A|-9-9-9-8-----12-12-12-----9-9-9-8-----------------| 
E|-7-7-7-6-0-0-10-10-10-0-0-7-7-7-6-0-6-7---6-7---0-| 
A|---------0-0----------0-0---------0-----6-----6-0-| 
           ...          ...         ................ 

B|--------------------------------------------------| 
G|--------------------------------------------------| 
D|-9-9-9-8-----12-12-12-----9-9-9-8-----------------| 
A|-9-9-9-8-----12-12-12-----9-9-9-8-----------------| 
E|-7-7-7-6-0-0-10-10-10-0-0-7-7-7-6-0-------------0-| 
A|---------0-0----------0-0---------0-1-2-1-4-3-1-0-| 
           ...          ...         ................ 

B|--------------------------------------------------| 
G|--------------------------------------------------| 
D|-9-9-9-8-----12-12-12-----9-9-9-8-----------------| 
A|-9-9-9-8-----12-12-12-----9-9-9-8-----------------| 
E|-7-7-7-6-0-0-10-10-10-0-0-7-7-7-6-0-6-7---6-7---0-| 
A|---------0-0----------0-0---------0-----6-----6-0-| 
           ...          ...         ................ 

B|----------------------------------| 
G|----------------------------------| 
D|-9-9-9-8-----12-12-12-----9-9-9-8-| 
A|-9-9-9-8-----12-12-12-----9-9-9-8-| 
E|-7-7-7-6-0-0-10-10-10-0-0-7-7-7-6-| 
A|---------0-0----------0-0---------| 
           ...          ...          
	  

Request the video "You Only Live Once"  -  Send "You Only Live Once" Ringtone to your Cell

there isn't a video lesson for this song

request
e-chords
Search
auto scroll beats size up size down change color hide chords drawings
tab show chords e-chords YouTube Clip e-chords hide all tabs e-chords go to top tab